  0
SECTION
  2
HEADER
  9
$ACADVER
  1
AC1006
  9
$EXTMIN
 10
0.000000
 20
0.000000
 30
0.000000
  9
$EXTMAX
 10
2329.000000
 20
2362.000000
 30
0.000000
  0
ENDSEC
  0
SECTION
  2
ENTITIES
  0
POLYLINE
  8
0
 66
1
 70
1
  0
VERTEX
  8
0
 10
1094.000000
 20
2360.127808
 42
0.121193
  0
VERTEX
  8
0
 10
1094.225195
 20
2359.212375
 42
0.129377
  0
VERTEX
  8
0
 10
1094.846248
 20
2358.531856
 42
0.079954
  0
VERTEX
  8
0
 10
1095.987088
 20
2358.030360
 42
0.024011
  0
VERTEX
  8
0
 10
1097.849588
 20
2357.640043
 42
-0.128524
  0
VERTEX
  8
0
 10
1103.683292
 20
2355.075282
 42
-0.074903
  0
VERTEX
  8
0
 10
1108.933849
 20
2349.455158
 42
-0.026206
  0
VERTEX
  8
0
 10
1116.040446
 20
2337.850665
 42
-0.002263
  0
VERTEX
  8
0
 10
1132.463973
 20
2307.248755
 42
0.000000
  0
VERTEX
  8
0
 10
1151.177732
 20
2271.997510
 42
0.000000
  0
VERTEX
  8
0
 10
1150.838866
 20
2251.570070
 42
-0.002189
  0
VERTEX
  8
0
 10
1150.580225
 20
2239.235040
 42
-0.019730
  0
VERTEX
  8
0
 10
1150.230548
 20
2233.846078
 42
-0.047456
  0
VERTEX
  8
0
 10
1149.590803
 20
2230.675347
 42
-0.086334
  0
VERTEX
  8
0
 10
1148.406336
 20
2228.321315
 42
-0.081497
  0
VERTEX
  8
0
 10
1146.034040
 20
2226.022155
 42
-0.065655
  0
VERTEX
  8
0
 10
1142.873722
 20
2224.392943
 42
-0.053754
  0
VERTEX
  8
0
 10
1138.818654
 20
2223.411504
 42
-0.030069
  0
VERTEX
  8
0
 10
1133.750000
 20
2223.056442
 42
0.009252
  0
VERTEX
  8
0
 10
1130.458315
 20
2222.963201
 42
0.074297
  0
VERTEX
  8
0
 10
1128.975805
 20
2222.670168
 42
0.186163
  0
VERTEX
  8
0
 10
1128.264948
 20
2222.057212
 42
0.123397
  0
VERTEX
  8
0
 10
1128.000000
 20
2221.000000
 42
0.360022
  0
VERTEX
  8
0
 10
1129.022670
 20
2219.763802
 42
0.034514
  0
VERTEX
  8
0
 10
1133.196666
 20
2219.262635
 42
0.011926
  0
VERTEX
  8
0
 10
1141.694655
 20
2219.036152
 42
0.000698
  0
VERTEX
  8
0
 10
1167.573324
 20
2219.000000
 42
0.000808
  0
VERTEX
  8
0
 10
1192.064274
 20
2219.039577
 42
0.010334
  0
VERTEX
  8
0
 10
1201.241614
 20
2219.258953
 42
0.021508
  0
VERTEX
  8
0
 10
1206.040221
 20
2219.680280
 42
0.431105
  0
VERTEX
  8
0
 10
1206.813879
 20
2220.750000
 42
0.174721
  0
VERTEX
  8
0
 10
1206.284280
 20
2221.645931
 42
0.098122
  0
VERTEX
  8
0
 10
1205.158307
 20
2222.254295
 42
0.047109
  0
VERTEX
  8
0
 10
1203.139545
 20
2222.675299
 42
0.009537
  0
VERTEX
  8
0
 10
1199.490554
 20
2223.013343
 42
-0.020746
  0
VERTEX
  8
0
 10
1194.511075
 20
2223.587450
 42
-0.056805
  0
VERTEX
  8
0
 10
1191.102900
 20
2224.529812
 42
-0.076346
  0
VERTEX
  8
0
 10
1188.604059
 20
2226.012932
 42
-0.068041
  0
VERTEX
  8
0
 10
1186.551285
 20
2228.230243
 42
-0.116555
  0
VERTEX
  8
0
 10
1185.718582
 20
2230.321435
 42
-0.021772
  0
VERTEX
  8
0
 10
1185.289744
 20
2234.456013
 42
-0.012757
  0
VERTEX
  8
0
 10
1185.056632
 20
2241.249268
 42
-0.002198
  0
VERTEX
  8
0
 10
1185.000000
 20
2254.134636
 42
0.000000
  0
VERTEX
  8
0
 10
1185.000000
 20
2277.824259
 42
0.000000
  0
VERTEX
  8
0
 10
1203.794450
 20
2309.183198
 42
-0.001946
  0
VERTEX
  8
0
 10
1220.885056
 20
2337.449150
 42
-0.024085
  0
VERTEX
  8
0
 10
1227.935707
 20
2347.846838
 42
-0.067750
  0
VERTEX
  8
0
 10
1233.120652
 20
2353.095103
 42
-0.091524
  0
VERTEX
  8
0
 10
1239.045066
 20
2356.131648
 42
0.026122
  0
VERTEX
  8
0
 10
1240.842498
 20
2356.774208
 42
0.064501
  0
VERTEX
  8
0
 10
1242.052299
 20
2357.473958
 42
0.095272
  0
VERTEX
  8
0
 10
1242.752600
 20
2358.260254
 42
0.135227
  0
VERTEX
  8
0
 10
1243.000000
 20
2359.158288
 42
0.319390
  0
VERTEX
  8
0
 10
1242.249229
 20
2360.213711
 42
0.062266
  0
VERTEX
  8
0
 10
1239.831520
 20
2360.728585
 42
0.019803
  0
VERTEX
  8
0
 10
1234.823387
 20
2360.958372
 42
0.001562
  0
VERTEX
  8
0
 10
1221.500000
 20
2361.000000
 42
0.001533
  0
VERTEX
  8
0
 10
1208.081568
 20
2360.958864
 42
0.020173
  0
VERTEX
  8
0
 10
1203.122535
 20
2360.728242
 42
0.065796
  0
VERTEX
  8
0
 10
1200.751300
 20
2360.202430
 42
0.315147
  0
VERTEX
  8
0
 10
1200.000000
 20
2359.128831
 42
0.141939
  0
VERTEX
  8
0
 10
1200.277274
 20
2358.171777
 42
0.137136
  0
VERTEX
  8
0
 10
1201.026080
 20
2357.495927
 42
0.068252
  0
VERTEX
  8
0
 10
1202.476463
 20
2357.006629
 42
0.014299
  0
VERTEX
  8
0
 10
1205.128399
 20
2356.577355
 42
-0.026212
  0
VERTEX
  8
0
 10
1207.678764
 20
2356.101936
 42
-0.044633
  0
VERTEX
  8
0
 10
1209.731710
 20
2355.408106
 42
-0.049563
  0
VERTEX
  8
0
 10
1211.475346
 20
2354.423225
 42
-0.043073
  0
VERTEX
  8
0
 10
1213.081876
 20
2353.071970
 42
-0.023292
  0
VERTEX
  8
0
 10
1214.692381
 20
2351.304001
 42
-0.109215
  0
VERTEX
  8
0
 10
1215.317285
 20
2350.087927
 42
-0.108730
  0
VERTEX
  8
0
 10
1215.372765
 20
2348.719035
 42
-0.022986
  0
VERTEX
  8
0
 10
1214.843154
 20
2346.373446
 42
-0.013864
  0
VERTEX
  8
0
 10
1214.324628
 20
2344.671649
 42
-0.009315
  0
VERTEX
  8
0
 10
1213.642638
 20
2342.756575
 42
-0.009386
  0
VERTEX
  8
0
 10
1212.912506
 20
2340.925979
 42
-0.018283
  0
VERTEX
  8
0
 10
1212.250139
 20
2339.500000
 42
-0.015432
  0
VERTEX
  8
0
 10
1209.538642
 20
2334.563298
 42
-0.000372
  0
VERTEX
  8
0
 10
1196.249665
 20
2312.082786
 42
-0.000136
  0
VERTEX
  8
0
 10
1182.211221
 20
2288.389368
 42
-0.045692
  0
VERTEX
  8
0
 10
1180.970616
 20
2286.675209
 42
-0.525397
  0
VERTEX
  8
0
 10
1179.994262
 20
2286.787515
 42
-0.000363
  0
VERTEX
  8
0
 10
1165.408111
 20
2314.263768
 42
-0.002005
  0
VERTEX
  8
0
 10
1152.222376
 20
2339.388636
 42
-0.035039
  0
VERTEX
  8
0
 10
1148.554804
 20
2347.844668
 42
-0.054149
  0
VERTEX
  8
0
 10
1147.552818
 20
2352.104993
 42
-0.203157
  0
VERTEX
  8
0
 10
1148.290874
 20
2354.690537
 42
-0.157279
  0
VERTEX
  8
0
 10
1150.847313
 20
2356.364980
 42
-0.029765
  0
VERTEX
  8
0
 10
1156.372151
 20
2357.533099
 42
0.034625
  0
VERTEX
  8
0
 10
1159.801601
 20
2358.293050
 42
0.270822
  0
VERTEX
  8
0
 10
1160.877625
 20
2359.437601
 42
0.379407
  0
VERTEX
  8
0
 10
1160.256840
 20
2360.574851
 42
0.045548
  0
VERTEX
  8
0
 10
1157.250000
 20
2361.358152
 42
0.034621
  0
VERTEX
  8
0
 10
1154.649343
 20
2361.604893
 42
0.001637
  0
VERTEX
  8
0
 10
1145.862500
 20
2361.799145
 42
0.002686
  0
VERTEX
  8
0
 10
1135.419585
 20
2361.939673
 42
0.001928
  0
VERTEX
  8
0
 10
1123.750000
 20
2361.988994
 42
0.001047
  0
VERTEX
  8
0
 10
1104.971045
 20
2361.956628
 42
0.014667
  0
VERTEX
  8
0
 10
1098.221147
 20
2361.732798
 42
0.041679
  0
VERTEX
  8
0
 10
1094.885015
 20
2361.242948
 42
0.348597
  0
SEQEND
  0
POLYLINE
  8
0
 66
1
 70
1
  0
VERTEX
  8
0
 10
1015.500000
 20
2354.415557
 42
-0.008249
  0
VERTEX
  8
0
 10
1013.303783
 20
2354.144056
 42
-0.000190
  0
VERTEX
  8
0
 10
1002.879688
 20
2353.033670
 42
-0.000424
  0
VERTEX
  8
0
 10
990.666377
 20
2351.747862
 42
-0.000287
  0
VERTEX
  8
0
 10
976.750000
 20
2350.302766
 42
0.001107
  0
VERTEX
  8
0
 10
955.493492
 20
2348.060218
 42
0.011312
  0
VERTEX
  8
0
 10
946.711008
 20
2346.912479
 42
0.020202
  0
VERTEX
  8
0
 10
941.925975
 20
2345.977477
 42
0.347400
  0
VERTEX
  8
0
 10
941.000000
 20
2344.805599
 42
0.159754
  0
VERTEX
  8
0
 10
941.303664
 20
2343.879444
 42
0.163730
  0
VERTEX
  8
0
 10
942.094001
 20
2343.324052
 42
0.063186
  0
VERTEX
  8
0
 10
943.710745
 20
2343.060204
 42
0.008892
  0
VERTEX
  8
0
 10
947.095708
 20
2343.000000
 42
-0.046462
  0
VERTEX
  8
0
 10
953.058855
 20
2342.444676
 42
-0.118325
  0
VERTEX
  8
0
 10
956.997553
 20
2340.679754
 42
-0.123376
  0
VERTEX
  8
0
 10
959.608341
 20
2337.373915
 42
-0.052792
  0
VERTEX
  8
0
 10
961.378070
 20
2331.987857
 42
-0.026696
  0
VERTEX
  8
0
 10
961.905973
 20
2328.687224
 42
-0.000098
  0
VERTEX
  8
0
 10
966.007162
 20
2289.779597
 42
-0.000575
  0
VERTEX
  8
0
 10
969.702303
 20
2254.265616
 42
-0.002049
  0
VERTEX
  8
0
 10
971.948791
 20
2231.515370
 42
-0.007581
  0
VERTEX
  8
0
 10
972.264583
 20
2227.534774
 42
-0.008709
  0
VERTEX
  8
0
 10
972.442139
 20
2223.726359
 42
-0.007969
  0
VERTEX
  8
0
 10
972.484846
 20
2220.499230
 42
-0.048711
  0
VERTEX
  8
0
 10
972.318570
 20
2218.842850
 42
-0.093217
  0
VERTEX
  8
0
 10
971.060652
 20
2215.723286
 42
-0.083569
  0
VERTEX
  8
0
 10
968.716642
 20
2213.135136
 42
-0.071216
  0
VERTEX
  8
0
 10
965.297997
 20
2211.150802
 42
-0.045041
  0
VERTEX
  8
0
 10
960.877548
 20
2209.813835
 42
0.013036
  0
VERTEX
  8
0
 10
957.932444
 20
2209.125026
 42
0.054554
  0
VERTEX
  8
0
 10
956.234977
 20
2208.476732
 42
0.106183
  0
VERTEX
  8
0
 10
955.327418
 20
2207.734688
 42
0.170068
  0
VERTEX
  8
0
 10
955.000000
 20
2206.799924
 42
0.052325
  0
VERTEX
  8
0
 10
955.072267
 20
2206.111264
 42
0.072196
  0
VERTEX
  8
0
 10
955.287059
 20
2205.528728
 42
0.092138
  0
VERTEX
  8
0
 10
955.604270
 20
2205.137383
 42
0.178327
  0
VERTEX
  8
0
 10
955.977221
 20
2205.000000
 42
0.026805
  0
VERTEX
  8
0
 10
958.525640
 20
2205.136719
 42
0.000108
  0
VERTEX
  8
0
 10
986.862824
 20
2208.192184
 42
0.000537
  0
VERTEX
  8
0
 10
1012.515176
 20
2210.991634
 42
0.003301
  0
VERTEX
  8
0
 10
1025.717834
 20
2212.535069
 42
0.034990
  0
VERTEX
  8
0
 10
1043.897540
 20
2216.086621
 42
0.057369
  0
VERTEX
  8
0
 10
1058.462212
 20
2221.861618
 42
0.068673
  0
VERTEX
  8
0
 10
1069.396021
 20
2229.820794
 42
0.087203
  0
VERTEX
  8
0
 10
1076.745200
 20
2239.890518
 42
0.022459
  0
VERTEX
  8
0
 10
1078.201178
 20
2243.225929
 42
0.043492
  0
VERTEX
  8
0
 10
1079.003992
 20
2246.020445
 42
0.036549
  0
VERTEX
  8
0
 10
1079.388257
 20
2249.213915
 42
0.011672
  0
VERTEX
  8
0
 10
1079.500000
 20
2254.000000
 42
0.011687
  0
VERTEX
  8
0
 10
1079.387858
 20
2258.796889
 42
0.036790
  0
VERTEX
  8
0
 10
1079.001755
 20
2261.991059
 42
0.043601
  0
VERTEX
  8
0
 10
1078.192939
 20
2264.793395
 42
0.022092
  0
VERTEX
  8
0
 10
1076.720218
 20
2268.160544
 42
0.066160
  0
VERTEX
  8
0
 10
1072.006074
 20
2275.222391
 42
0.068660
  0
VERTEX
  8
0
 10
1065.663480
 20
2280.706631
 42
0.059670
  0
VERTEX
  8
0
 10
1057.296695
 20
2284.817044
 42
0.034755
  0
VERTEX
  8
0
 10
1046.498220
 20
2287.781970
 42
0.000000
  0
VERTEX
  8
0
 10
1037.705735
 20
2289.550416
 42
0.000000
  0
VERTEX
  8
0
 10
1045.102868
 20
2293.210044
 42
0.043296
  0
VERTEX
  8
0
 10
1054.605081
 20
2298.983294
 42
0.073697
  0
VERTEX
  8
0
 10
1061.202508
 20
2305.505089
 42
0.084422
  0
VERTEX
  8
0
 10
1065.048702
 20
2312.973137
 42
0.076938
  0
VERTEX
  8
0
 10
1066.375000
 20
2321.541364
 42
0.088126
  0
VERTEX
  8
0
 10
1064.739496
 20
2330.748644
 42
0.069312
  0
VERTEX
  8
0
 10
1059.962917
 20
2339.703835
 42
0.068018
  0
VERTEX
  8
0
 10
1052.809339
 20
2347.166889
 42
0.078339
  0
VERTEX
  8
0
 10
1044.230867
 20
2352.014811
 42
0.052460
  0
VERTEX
  8
0
 10
1038.832851
 20
2353.411562
 42
0.016254
  0
VERTEX
  8
0
 10
1030.489655
 20
2354.382643
 42
0.016739
  0
VERTEX
  8
0
 10
1021.914576
 20
2354.810813
 42
0.038997
  0
SEQEND
  0
POLYLINE
  8
0
 66
1
 70
1
  0
VERTEX
  8
0
 10
1012.993770
 20
2343.907916
 42
-0.058960
  0
VERTEX
  8
0
 10
1017.802250
 20
2342.266019
 42
-0.053923
  0
VERTEX
  8
0
 10
1022.253786
 20
2339.508687
 42
-0.053488
  0
VERTEX
  8
0
 10
1026.045351
 20
2335.838112
 42
-0.056012
  0
VERTEX
  8
0
 10
1028.905115
 20
2331.500000
 42
-0.027991
  0
VERTEX
  8
0
 10
1030.255391
 20
2328.434902
 42
-0.045920
  0
VERTEX
  8
0
 10
1031.003590
 20
2325.701836
 42
-0.034106
  0
VERTEX
  8
0
 10
1031.363792
 20
2322.356204
 42
-0.009118
  0
VERTEX
  8
0
 10
1031.475369
 20
2317.000000
 42
-0.008134
  0
VERTEX
  8
0
 10
1031.398317
 20
2311.365631
 42
-0.041005
  0
VERTEX
  8
0
 10
1031.047015
 20
2308.239462
 42
-0.057744
  0
VERTEX
  8
0
 10
1030.243543
 20
2305.724500
 42
-0.026708
  0
VERTEX
  8
0
 10
1028.662372
 20
2302.672404
 42
-0.057919
  0
VERTEX
  8
0
 10
1025.801615
 20
2298.886563
 42
-0.043966
  0
VERTEX
  8
0
 10
1021.887143
 20
2295.452574
 42
-0.043096
  0
VERTEX
  8
0
 10
1017.334283
 20
2292.685621
 42
-0.049270
  0
VERTEX
  8
0
 10
1012.570062
 20
2290.884230
 42
-0.015518
  0
VERTEX
  8
0
 10
1008.935484
 20
2290.025546
 42
-0.007406
  0
VERTEX
  8
0
 10
1004.216201
 20
2289.136739
 42
-0.001595
  0
VERTEX
  8
0
 10
999.280043
 20
2288.298801
 42
-0.463398
  0
VERTEX
  8
0
 10
999.000000
 20
2288.536078
 42
0.025813
  0
VERTEX
  8
0
 10
998.934167
 20
2289.810433
 42
0.000036
  0
VERTEX
  8
0
 10
996.428150
 20
2313.983857
 42
0.000102
  0
VERTEX
  8
0
 10
994.018713
 20
2337.163230
 42
0.008657
  0
VERTEX
  8
0
 10
993.589472
 20
2340.690575
 42
-0.024831
  0
VERTEX
  8
0
 10
993.427581
 20
2342.509763
 42
-0.149675
  0
VERTEX
  8
0
 10
993.666844
 20
2343.416322
 42
-0.178991
  0
VERTEX
  8
0
 10
994.347691
 20
2343.946239
 42
-0.038857
  0
VERTEX
  8
0
 10
995.822514
 20
2344.290743
 42
-0.023873
  0
VERTEX
  8
0
 10
1000.051047
 20
2344.732373
 42
-0.019657
  0
VERTEX
  8
0
 10
1004.587285
 20
2344.809577
 42
-0.019914
  0
VERTEX
  8
0
 10
1009.035241
 20
2344.532939
 42
-0.027338
  0
SEQEND
  0
POLYLINE
  8
0
 66
1
 70
1
  0
VERTEX
  8
0
 10
1024.068499
 20
2279.405837
 42
-0.073769
  0
VERTEX
  8
0
 10
1029.383081
 20
2276.950697
 42
-0.051081
  0
VERTEX
  8
0
 10
1034.531010
 20
2272.769837
 42
-0.050180
  0
VERTEX
  8
0
 10
1038.825851
 20
2267.527178
 42
-0.063188
  0
VERTEX
  8
0
 10
1041.608601
 20
2261.908603
 42
-0.051603
  0
VERTEX
  8
0
 10
1043.070822
 20
2255.678768
 42
-0.034589
  0
VERTEX
  8
0
 10
1043.497362
 20
2248.367568
 42
-0.035060
  0
VERTEX
  8
0
 10
1042.926237
 20
2241.329282
 42
-0.070370
  0
VERTEX
  8
0
 10
1041.326804
 20
2236.000000
 42
-0.061129
  0
VERTEX
  8
0
 10
1037.796125
 20
2230.295004
 42
-0.061922
  0
VERTEX
  8
0
 10
1033.004289
 20
2225.640863
 42
-0.059506
  0
VERTEX
  8
0
 10
1027.038176
 20
2222.159102
 42
-0.049574
  0
VERTEX
  8
0
 10
1020.042789
 20
2219.915756
 42
-0.047367
  0
VERTEX
  8
0
 10
1015.382502
 20
2219.369896
 42
-0.085026
  0
VERTEX
  8
0
 10
1011.583487
 20
2219.935157
 42
-0.103576
  0
VERTEX
  8
0
 10
1008.694893
 20
2221.603543
 42
-0.102268
  0
VERTEX
  8
0
 10
1006.702663
 20
2224.297366
 42
-0.077033
  0
VERTEX
  8
0
 10
1005.725803
 20
2227.704862
 42
-0.000964
  0
VERTEX
  8
0
 10
1002.930949
 20
2250.219780
 42
-0.002068
  0
VERTEX
  8
0
 10
1000.419284
 20
2271.508354
 42
-0.029197
  0
VERTEX
  8
0
 10
999.997665
 20
2279.176676
 42
-0.393726
  0
VERTEX
  8
0
 10
1001.323604
 20
2280.589674
 42
-0.014371
  0
VERTEX
  8
0
 10
1009.344605
 20
2280.896710
 42
-0.023228
  0
VERTEX
  8
0
 10
1017.739208
 20
2280.586572
 42
-0.050570
  0
SEQEND
  0
POLYLINE
  8
0
 66
1
 70
1
  0
VERTEX
  8
0
 10
1320.482968
 20
2351.476825
 42
0.056628
  0
VERTEX
  8
0
 10
1304.179041
 20
2345.902067
 42
0.057565
  0
VERTEX
  8
0
 10
1289.638996
 20
2336.834656
 42
0.057027
  0
VERTEX
  8
0
 10
1277.435456
 20
2324.603277
 42
0.053717
  0
VERTEX
  8
0
 10
1268.026101
 20
2309.694614
 42
0.021660
  0
VERTEX
  8
0
 10
1264.336377
 20
2301.259669
 42
0.037266
  0
VERTEX
  8
0
 10
1262.111302
 20
2293.925091
 42
0.036192
  0
VERTEX
  8
0
 10
1260.961101
 20
2286.194111
 42
0.019136
  0
VERTEX
  8
0
 10
1260.601526
 20
2276.500000
 42
0.019310
  0
VERTEX
  8
0
 10
1260.987593
 20
2266.806903
 42
0.036684
  0
VERTEX
  8
0
 10
1262.167341
 20
2259.092767
 42
0.037128
  0
VERTEX
  8
0
 10
1264.450249
 20
2251.694744
 42
0.020304
  0
VERTEX
  8
0
 10
1268.272087
 20
2243.000000
 42
0.043623
  0
VERTEX
  8
0
 10
1272.855829
 20
2235.386484
 42
0.031824
  0
VERTEX
  8
0
 10
1279.166058
 20
2227.783445
 42
0.031586
  0
VERTEX
  8
0
 10
1286.460924
 20
2220.970213
 42
0.040411
  0
VERTEX
  8
0
 10
1294.007286
 20
2215.725713
 42
0.054206
  0
VERTEX
  8
0
 10
1308.571184
 20
2209.252265
 42
0.041585
  0
VERTEX
  8
0
 10
1325.550459
 20
2205.333390
 42
0.042289
  0
VERTEX
  8
0
 10
1342.541345
 20
2204.326657
 42
0.064653
  0
VERTEX
  8
0
 10
1357.107184
 20
2206.594740
 42
0.034229
  0
VERTEX
  8
0
 10
1362.531568
 20
2208.587284
 42
0.014772
  0
VERTEX
  8
0
 10
1369.468640
 20
2211.938298
 42
0.014801
  0
VERTEX
  8
0
 10
1376.221590
 20
2215.708047
 42
0.032788
  0
VERTEX
  8
0
 10
1381.072708
 20
2219.057586
 42
0.026790
  0
VERTEX
  8
0
 10
1383.145447
 20
2220.888100
 42
0.081702
  0
VERTEX
  8
0
 10
1384.249167
 20
2222.399449
 42
0.076322
  0
VERTEX
  8
0
 10
1384.850457
 20
2224.242405
 42
0.021401
  0
VERTEX
  8
0
 10
1385.214783
 20
2227.258018
 42
0.004443
  0
VERTEX
  8
0
 10
1385.354361
 20
2229.290951
 42
0.006778
  0
VERTEX
  8
0
 10
1385.435870
 20
2231.057445
 42
0.002869
  0
VERTEX
  8
0
 10
1385.476206
 20
2232.561417
 42
0.155837
  0
VERTEX
  8
0
 10
1385.396266
 20
2232.831156
 42
0.418019
  0
VERTEX
  8
0
 10
1385.187857
 20
2232.869428
 42
0.003326
  0
VERTEX
  8
0
 10
1383.669880
 20
2231.792758
 42
0.009128
  0
VERTEX
  8
0
 10
1381.897632
 20
2230.468178
 42
0.005445
  0
VERTEX
  8
0
 10
1379.835510
 20
2228.831156
 42
-0.026408
  0
VERTEX
  8
0
 10
1370.016715
 20
2221.686134
 42
-0.047817
  0
VERTEX
  8
0
 10
1361.212818
 20
2217.094856
 42
-0.053161
  0
VERTEX
  8
0
 10
1352.372178
 20
2214.563028
 42
-0.042566
  0
VERTEX
  8
0
 10
1342.500000
 20
2213.695832
 42
-0.059731
  0
VERTEX
  8
0
 10
1328.667988
 20
2215.318553
 42
-0.080430
  0
VERTEX
  8
0
 10
1317.057833
 20
2220.181015
 42
-0.085280
  0
VERTEX
  8
0
 10
1308.065261
 20
2228.184682
 42
-0.077115
  0
VERTEX
  8
0
 10
1301.880828
 20
2239.000000
 42
-0.053418
  0
VERTEX
  8
0
 10
1298.546171
 20
2251.597026
 42
-0.032661
  0
VERTEX
  8
0
 10
1297.212724
 20
2266.929663
 42
-0.031266
  0
VERTEX
  8
0
 10
1297.883414
 20
2283.255253
 42
-0.034035
  0
VERTEX
  8
0
 10
1300.595597
 20
2298.903764
 42
-0.033348
  0
VERTEX
  8
0
 10
1303.084919
 20
2306.774249
 42
-0.021906
  0
VERTEX
  8
0
 10
1306.934128
 20
2315.468159
 42
-0.022001
  0
VERTEX
  8
0
 10
1311.327383
 20
2323.422628
 42
-0.050899
  0
VERTEX
  8
0
 10
1315.453870
 20
2328.847230
 42
-0.047531
  0
VERTEX
  8
0
 10
1320.427748
 20
2333.243053
 42
-0.034401
  0
VERTEX
  8
0
 10
1326.698014
 20
2337.174328
 42
-0.034258
  0
VERTEX
  8
0
 10
1333.486616
 20
2340.228363
 42
-0.045494
  0
VERTEX
  8
0
 10
1340.020378
 20
2341.989861
 42
-0.088065
  0
VERTEX
  8
0
 10
1353.439401
 20
2341.946082
 42
-0.077347
  0
VERTEX
  8
0
 10
1366.694090
 20
2337.356718
 42
-0.076568
  0
VERTEX
  8
0
 10
1378.042105
 20
2328.897930
 42
-0.083385
  0
VERTEX
  8
0
 10
1385.929662
 20
2317.637143
 42
-0.014764
  0
VERTEX
  8
0
 10
1387.670806
 20
2313.686485
 42
-0.021418
  0
VERTEX
  8
0
 10
1388.951586
 20
2310.097259
 42
-0.017249
  0
VERTEX
  8
0
 10
1390.098086
 20
2305.879772
 42
-0.006050
  0
VERTEX
  8
0
 10
1391.461335
 20
2299.750000
 42
0.045023
  0
VERTEX
  8
0
 10
1391.837160
 20
2298.520802
 42
0.090869
  0
VERTEX
  8
0
 10
1392.380134
 20
2297.669846
 42
0.111585
  0
VERTEX
  8
0
 10
1393.105405
 20
2297.174343
 42
0.094558
  0
VERTEX
  8
0
 10
1394.019052
 20
2297.000000
 42
0.061131
  0
VERTEX
  8
0
 10
1394.777814
 20
2297.093116
 42
0.078866
  0
VERTEX
  8
0
 10
1395.423125
 20
2297.367188
 42
0.096046
  0
VERTEX
  8
0
 10
1395.858459
 20
2297.773182
 42
0.154988
  0
VERTEX
  8
0
 10
1396.017118
 20
2298.250000
 42
-0.024822
  0
VERTEX
  8
0
 10
1396.076834
 20
2299.191698
 42
-0.000313
  0
VERTEX
  8
0
 10
1396.757076
 20
2305.154687
 42
-0.000918
  0
VERTEX
  8
0
 10
1397.561210
 20
2312.052921
 42
-0.000601
  0
VERTEX
  8
0
 10
1398.512085
 20
2320.000000
 42
0.001457
  0
VERTEX
  8
0
 10
1400.498822
 20
2336.848955
 42
0.023928
  0
VERTEX
  8
0
 10
1400.876439
 20
2342.509559
 42
0.101968
  0
VERTEX
  8
0
 10
1400.400739
 20
2345.058986
 42
0.304711
  0
VERTEX
  8
0
 10
1399.000000
 20
2346.000000
 42
0.071952
  0
VERTEX
  8
0
 10
1398.210465
 20
2345.885791
 42
0.095376
  0
VERTEX
  8
0
 10
1397.567073
 20
2345.552885
 42
0.108296
  0
VERTEX
  8
0
 10
1397.149152
 20
2345.043808
 42
0.118456
  0
VERTEX
  8
0
 10
1397.000000
 20
2344.423077
 42
-0.166411
  0
VERTEX
  8
0
 10
1396.337459
 20
2342.487523
 42
-0.037746
  0
VERTEX
  8
0
 10
1393.976161
 20
2339.875649
 42
-0.038134
  0
VERTEX
  8
0
 10
1391.233906
 20
2337.639647
 42
-0.153136
  0
VERTEX
  8
0
 10
1389.194392
 20
2337.000000
 42
-0.093623
  0
VERTEX
  8
0
 10
1387.918495
 20
2337.241018
 42
-0.005296
  0
VERTEX
  8
0
 10
1384.177583
 20
2338.752535
 42
-0.007970
  0
VERTEX
  8
0
 10
1379.747715
 20
2340.680658
 42
-0.005751
  0
VERTEX
  8
0
 10
1374.867469
 20
2342.966075
 42
0.018711
  0
VERTEX
  8
0
 10
1364.059538
 20
2347.689927
 42
0.031156
  0
VERTEX
  8
0
 10
1354.607975
 20
2350.741943
 42
0.034386
  0
VERTEX
  8
0
 10
1345.555936
 20
2352.401329
 42
0.030607
  0
VERTEX
  8
0
 10
1336.000000
 20
2352.892584
 42
0.011322
  0
VERTEX
  8
0
 10
1331.922062
 20
2352.760105
 42
0.008967
  0
VERTEX
  8
0
 10
1327.523122
 20
2352.438176
 42
0.009084
  0
VERTEX
  8
0
 10
1323.451294
 20
2351.991941
 42
0.022255
  0
SEQEND
  0
POLYLINE
  8
0
 66
1
 70
1
  0
VERTEX
  8
0
 10
897.055013
 20
2338.750000
 42
-0.053792
  0
VERTEX
  8
0
 10
894.980427
 20
2333.788375
 42
-0.171443
  0
VERTEX
  8
0
 10
892.337920
 20
2331.434486
 42
-0.113117
  0
VERTEX
  8
0
 10
888.078812
 20
2330.734755
 42
-0.017461
  0
VERTEX
  8
0
 10
879.500000
 20
2331.572628
 42
0.013650
  0
VERTEX
  8
0
 10
869.819341
 20
2332.592632
 42
0.023316
  0
VERTEX
  8
0
 10
861.696694
 20
2332.844959
 42
0.025556
  0
VERTEX
  8
0
 10
854.133154
 20
2332.339941
 42
0.021434
  0
VERTEX
  8
0
 10
846.197083
 20
2331.054067
 42
0.048703
  0
VERTEX
  8
0
 10
827.164280
 20
2325.149349
 42
0.063612
  0
VERTEX
  8
0
 10
811.409398
 20
2316.019462
 42
0.064818
  0
VERTEX
  8
0
 10
798.673677
 20
2303.377256
 42
0.053233
  0
VERTEX
  8
0
 10
788.595810
 20
2287.059619
 42
0.028777
  0
VERTEX
  8
0
 10
785.255451
 20
2278.918540
 42
0.037271
  0
VERTEX
  8
0
 10
783.202090
 20
2271.115552
 42
0.034847
  0
VERTEX
  8
0
 10
782.244530
 20
2262.688536
 42
0.020938
  0
VERTEX
  8
0
 10
782.228325
 20
2252.617331
 42
0.008879
  0
VERTEX
  8
0
 10
782.622285
 20
2245.834738
 42
0.023278
  0
VERTEX
  8
0
 10
783.217218
 20
2240.995459
 42
0.025821
  0
VERTEX
  8
0
 10
784.218799
 20
2236.527076
 42
0.013350
  0
VERTEX
  8
0
 10
785.904757
 20
2231.054206
 42
0.022770
  0
VERTEX
  8
0
 10
789.142390
 20
2222.733065
 42
0.032109
  0
VERTEX
  8
0
 10
792.821923
 20
2215.678947
 42
0.033725
  0
VERTEX
  8
0
 10
797.217325
 20
2209.422252
 42
0.029475
  0
VERTEX
  8
0
 10
802.603564
 20
2203.508714
 42
0.077681
  0
VERTEX
  8
0
 10
820.394059
 20
2190.860369
 42
0.076453
  0
VERTEX
  8
0
 10
841.292422
 20
2184.157202
 42
0.069703
  0
VERTEX
  8
0
 10
864.902468
 20
2183.718170
 42
0.050201
  0
VERTEX
  8
0
 10
890.651315
 20
2189.500613
 42
0.025216
  0
VERTEX
  8
0
 10
902.897604
 20
2194.273681
 42
0.017641
  0
VERTEX
  8
0
 10
916.191445
 20
2200.816185
 42
0.009540
  0
VERTEX
  8
0
 10
928.269498
 20
2207.599175
 42
0.266025
  0
VERTEX
  8
0
 10
930.000000
 20
2210.621509
 42
0.048098
  0
VERTEX
  8
0
 10
929.914684
 20
2211.506353
 42
0.000780
  0
VERTEX
  8
0
 10
928.951460
 20
2216.414043
 42
0.002030
  0
VERTEX
  8
0
 10
927.798433
 20
2222.118945
 42
0.001345
  0
VERTEX
  8
0
 10
926.430503
 20
2228.659418
 42
-0.011378
  0
VERTEX
  8
0
 10
923.697713
 20
2243.173011
 42
-0.085425
  0
VERTEX
  8
0
 10
923.747032
 20
2250.141719
 42
-0.173975
  0
VERTEX
  8
0
 10
926.185734
 20
2254.381170
 42
-0.085072
  0
VERTEX
  8
0
 10
931.622464
 20
2257.599919
 42
0.023186
  0
VERTEX
  8
0
 10
933.595401
 20
2258.460174
 42
0.055534
  0
VERTEX
  8
0
 10
934.938724
 20
2259.318347
 42
0.081320
  0
VERTEX
  8
0
 10
935.728030
 20
2260.201992
 42
0.142652
  0
VERTEX
  8
0
 10
936.000000
 20
2261.135858
 42
0.025515
  0
VERTEX
  8
0
 10
935.963524
 20
2261.850202
 42
0.040440
  0
VERTEX
  8
0
 10
935.852153
 20
2262.452408
 42
0.048634
  0
VERTEX
  8
0
 10
935.691110
 20
2262.879095
 42
0.285582
  0
VERTEX
  8
0
 10
935.496691
 20
2263.000000
 42
0.054650
  0
VERTEX
  8
0
 10
934.316104
 20
2262.870575
 42
0.000038
  0
VERTEX
  8
0
 10
903.085223
 20
2255.937286
 42
0.000067
  0
VERTEX
  8
0
 10
872.264736
 20
2249.088345
 42
0.030636
  0
VERTEX
  8
0
 10
870.266859
 20
2248.513730
 42
0.130706
  0
VERTEX
  8
0
 10
869.843934
 20
2248.223617
 42
0.103551
  0
VERTEX
  8
0
 10
869.575606
 20
2247.736209
 42
0.090859
  0
VERTEX
  8
0
 10
869.504464
 20
2247.123845
 42
0.075353
  0
VERTEX
  8
0
 10
869.645302
 20
2246.481946
 42
0.141891
  0
VERTEX
  8
0
 10
870.223805
 20
2245.718284
 42
0.121162
  0
VERTEX
  8
0
 10
871.157145
 20
2245.324292
 42
0.059100
  0
VERTEX
  8
0
 10
872.717917
 20
2245.261473
 42
0.011616
  0
VERTEX
  8
0
 10
875.514499
 20
2245.545079
 42
-0.052713
  0
VERTEX
  8
0
 10
879.915942
 20
2245.628578
 42
-0.068736
  0
VERTEX
  8
0
 10
883.839931
 20
2244.736184
 42
-0.079858
  0
VERTEX
  8
0
 10
886.905187
 20
2242.980117
 42
-0.116433
  0
VERTEX
  8
0
 10
888.804665
 20
2240.529368
 42
-0.048898
  0
VERTEX
  8
0
 10
889.745627
 20
2237.780511
 42
-0.000967
  0
VERTEX
  8
0
 10
893.130480
 20
2223.334269
 42
-0.001845
  0
VERTEX
  8
0
 10
896.273490
 20
2209.572121
 42
-0.020271
  0
VERTEX
  8
0
 10
897.289068
 20
2204.000661
 42
-0.301136
  0
VERTEX
  8
0
 10
896.400632
 20
2202.138845
 42
-0.016092
  0
VERTEX
  8
0
 10
890.390148
 20
2198.789560
 42
-0.024419
  0
VERTEX
  8
0
 10
883.683842
 20
2195.735180
 42
-0.042384
  0
VERTEX
  8
0
 10
877.830551
 20
2193.964041
 42
-0.041185
  0
VERTEX
  8
0
 10
870.680055
 20
2193.052555
 42
-0.032349
  0
VERTEX
  8
0
 10
862.864816
 20
2193.210529
 42
-0.033208
  0
VERTEX
  8
0
 10
855.485046
 20
2194.335514
 42
-0.059406
  0
VERTEX
  8
0
 10
849.701671
 20
2196.357530
 42
-0.124261
  0
VERTEX
  8
0
 10
837.034103
 20
2207.076493
 42
-0.057479
  0
VERTEX
  8
0
 10
826.498415
 20
2226.070090
 42
-0.051319
  0
VERTEX
  8
0
 10
819.399822
 20
2249.939641
 42
-0.046885
  0
VERTEX
  8
0
 10
817.020676
 20
2275.500000
 42
-0.049055
  0
VERTEX
  8
0
 10
818.685930
 20
2292.279547
 42
-0.084446
  0
VERTEX
  8
0
 10
823.690866
 20
2305.359960
 42
-0.094110
  0
VERTEX
  8
0
 10
832.266192
 20
2315.105699
 42
-0.074947
  0
VERTEX
  8
0
 10
844.500000
 20
2321.979542
 42
-0.052502
  0
VERTEX
  8
0
 10
851.486449
 20
2323.818588
 42
-0.036616
  0
VERTEX
  8
0
 10
859.618393
 20
2324.464680
 42
-0.036286
  0
VERTEX
  8
0
 10
867.861769
 20
2323.916048
 42
-0.047722
  0
VERTEX
  8
0
 10
875.190443
 20
2322.166281
 42
-0.044684
  0
VERTEX
  8
0
 10
883.851385
 20
2318.308422
 42
-0.040255
  0
VERTEX
  8
0
 10
892.016945
 20
2312.855027
 42
-0.039560
  0
VERTEX
  8
0
 10
899.338213
 20
2306.056822
 42
-0.039707
  0
VERTEX
  8
0
 10
905.487461
 20
2298.198313
 42
0.026318
  0
VERTEX
  8
0
 10
906.723189
 20
2296.528959
 42
0.036531
  0
VERTEX
  8
0
 10
908.008767
 20
2295.184146
 42
0.041570
  0
VERTEX
  8
0
 10
909.205385
 20
2294.271081
 42
0.143141
  0
VERTEX
  8
0
 10
910.132886
 20
2294.000000
 42
0.040906
  0
VERTEX
  8
0
 10
910.847764
 20
2294.058584
 42
0.060336
  0
VERTEX
  8
0
 10
911.451535
 20
2294.234859
 42
0.079337
  0
VERTEX
  8
0
 10
911.861663
 20
2294.493665
 42
0.215633
  0
VERTEX
  8
0
 10
912.000000
 20
2294.799520
 42
0.051806
  0
VERTEX
  8
0
 10
911.935458
 20
2295.420764
 42
0.000219
  0
VERTEX
  8
0
 10
910.531250
 20
2302.091338
 42
0.001080
  0
VERTEX
  8
0
 10
908.916670
 20
2309.663602
 42
0.000680
  0
VERTEX
  8
0
 10
907.000000
 20
2318.500000
 42
-0.000680
  0
VERTEX
  8
0
 10
905.083330
 20
2327.336398
 42
-0.001080
  0
VERTEX
  8
0
 10
903.468750
 20
2334.908662
 42
-0.000219
  0
VERTEX
  8
0
 10
902.064542
 20
2341.579236
 42
-0.051806
  0
VERTEX
  8
0
 10
902.000000
 20
2342.200480
 42
0.213451
  0
VERTEX
  8
0
 10
901.863222
 20
2342.506278
 42
0.080183
  0
VERTEX
  8
0
 10
901.458997
 20
2342.765141
 42
0.061002
  0
VERTEX
  8
0
 10
900.863415
 20
2342.941389
 42
0.041489
  0
VERTEX
  8
0
 10
900.158288
 20
2343.000000
 42
0.140213
  0
VERTEX
  8
0
 10
899.246418
 20
2342.739161
 42
0.096014
  0
VERTEX
  8
0
 10
898.452830
 20
2342.001843
 42
0.062404
  0
VERTEX
  8
0
 10
897.737908
 20
2340.711799
 42
0.023216
  0
SEQEND
  0
POLYLINE
  8
0
 66
1
 70
1
  0
VERTEX
  8
0
 10
1432.000000
 20
2335.227123
 42
0.125486
  0
VERTEX
  8
0
 10
1432.260554
 20
2334.205291
 42
0.119230
  0
VERTEX
  8
0
 10
1432.981835
 20
2333.410058
 42
0.069167
  0
VERTEX
  8
0
 10
1434.337237
 20
2332.740769
 42
0.018472
  0
VERTEX
  8
0
 10
1436.652898
 20
2332.065817
 42
-0.065624
  0
VERTEX
  8
0
 10
1440.960851
 20
2330.356468
 42
-0.067106
  0
VERTEX
  8
0
 10
1444.642623
 20
2327.599135
 42
-0.074300
  0
VERTEX
  8
0
 10
1447.145569
 20
2324.276793
 42
-0.124976
  0
VERTEX
  8
0
 10
1448.000000
 20
2320.911813
 42
-0.056422
  0
VERTEX
  8
0
 10
1447.457135
 20
2316.116390
 42
-0.000263
  0
VERTEX
  8
0
 10
1436.209610
 20
2267.193600
 42
-0.000638
  0
VERTEX
  8
0
 10
1425.452221
 20
2220.786164
 42
-0.021175
  0
VERTEX
  8
0
 10
1422.384758
 20
2209.762675
 42
-0.054326
  0
VERTEX
  8
0
 10
1420.340464
 20
2205.212929
 42
-0.125871
  0
VERTEX
  8
0
 10
1417.723344
 20
2202.574056
 42
-0.110332
  0
VERTEX
  8
0
 10
1413.921781
 20
2201.317059
 42
-0.036318
  0
VERTEX
  8
0
 10
1408.000000
 20
2201.157393
 42
0.007049
  0
VERTEX
  8
0
 10
1404.031287
 20
2201.282649
 42
0.041870
  0
VERTEX
  8
0
 10
1401.962623
 20
2201.145420
 42
0.105529
  0
VERTEX
  8
0
 10
1400.892334
 20
2200.742301
 42
0.255423
  0
VERTEX
  8
0
 10
1400.500000
 20
2200.024398
 42
0.337613
  0
VERTEX
  8
0
 10
1401.470782
 20
2198.750558
 42
0.003829
  0
VERTEX
  8
0
 10
1412.483143
 20
2195.812195
 42
0.003559
  0
VERTEX
  8
0
 10
1432.231128
 20
2190.854345
 42
0.000196
  0
VERTEX
  8
0
 10
1494.173610
 20
2175.796953
 42
0.000000
  0
VERTEX
  8
0
 10
1520.847219
 20
2169.324036
 42
0.000000
  0
VERTEX
  8
0
 10
1528.923610
 20
2192.522601
 42
0.000709
  0
VERTEX
  8
0
 10
1532.019877
 20
2201.457085
 42
0.001145
  0
VERTEX
  8
0
 10
1534.627560
 20
2209.072878
 42
0.000161
  0
VERTEX
  8
0
 10
1536.927442
 20
2215.847387
 42
0.081923
  0
VERTEX
  8
0
 10
1537.000000
 20
2216.287259
 42
0.227445
  0
VERTEX
  8
0
 10
1536.884306
 20
2216.528436
 42
0.049122
  0
VERTEX
  8
0
 10
1536.485938
 20
2216.788338
 42
0.042063
  0
VERTEX
  8
0
 10
1535.920218
 20
2217.024746
 42
0.029317
  0
VERTEX
  8
0
 10
1535.250000
 20
2217.198122
 42
0.218392
  0
VERTEX
  8
0
 10
1534.141809
 20
2216.932197
 42
0.042719
  0
VERTEX
  8
0
 10
1532.603637
 20
2215.496573
 42
0.028799
  0
VERTEX
  8
0
 10
1530.602863
 20
2213.006644
 42
0.008791
  0
VERTEX
  8
0
 10
1527.866274
 20
2209.021447
 42
-0.014349
  0
VERTEX
  8
0
 10
1525.299242
 20
2205.370804
 42
-0.010350
  0
VERTEX
  8
0
 10
1522.237898
 20
2201.444569
 42
-0.010468
  0
VERTEX
  8
0
 10
1519.169390
 20
2197.830095
 42
-0.022234
  0
VERTEX
  8
0
 10
1516.617035
 20
2195.194106
 42
-0.058832
  0
VERTEX
  8
0
 10
1508.121145
 20
2188.874771
 42
-0.093734
  0
VERTEX
  8
0
 10
1499.595671
 20
2185.906125
 42
-0.073889
  0
VERTEX
  8
0
 10
1489.162330
 20
2185.899392
 42
-0.025217
  0
VERTEX
  8
0
 10
1474.276824
 20
2188.874846
 42
-0.013178
  0
VERTEX
  8
0
 10
1463.515752
 20
2191.900242
 42
-0.092175
  0
VERTEX
  8
0
 10
1458.708059
 20
2194.429232
 42
-0.175556
  0
VERTEX
  8
0
 10
1456.632084
 20
2197.776485
 42
-0.079598
  0
VERTEX
  8
0
 10
1456.377438
 20
2203.000000
 42
-0.030248
  0
VERTEX
  8
0
 10
1458.573417
 20
2215.744863
 42
-0.001251
  0
VERTEX
  8
0
 10
1469.298023
 20
2260.815096
 42
-0.000440
  0
VERTEX
  8
0
 10
1480.896901
 20
2308.837429
 42
-0.100096
  0
VERTEX
  8
0
 10
1482.843352
 20
2313.000000
 42
-0.056291
  0
VERTEX
  8
0
 10
1485.145425
 20
2315.474124
 42
-0.084859
  0
VERTEX
  8
0
 10
1487.666111
 20
2316.983828
 42
-0.078840
  0
VERTEX
  8
0
 10
1490.683627
 20
2317.636342
 42
-0.042355
  0
VERTEX
  8
0
 10
1494.500000
 20
2317.525441
 42
0.002737
  0
VERTEX
  8
0
 10
1500.790366
 20
2316.841924
 42
0.037969
  0
VERTEX
  8
0
 10
1503.074140
 20
2316.780569
 42
0.141164
  0
VERTEX
  8
0
 10
1504.177852
 20
2317.158025
 42
0.192197
  0
VERTEX
  8
0
 10
1504.749461
 20
2318.028511
 42
0.380965
  0
VERTEX
  8
0
 10
1504.145820
 20
2319.066594
 42
0.008514
  0
VERTEX
  8
0
 10
1498.171286
 20
2320.908749
 42
0.009366
  0
VERTEX
  8
0
 10
1488.677124
 20
2323.468248
 42
0.001658
  0
VERTEX
  8
0
 10
1470.780669
 20
2327.872083
 42
0.000079
  0
VERTEX
  8
0
 10
1457.480219
 20
2331.095980
 42
0.000120
  0
VERTEX
  8
0
 10
1445.909009
 20
2333.895829
 42
0.000044
  0
VERTEX
  8
0
 10
1435.936100
 20
2336.305474
 42
0.003011
  0
VERTEX
  8
0
 10
1434.250000
 20
2336.701981
 42
0.039401
  0
VERTEX
  8
0
 10
1433.123831
 20
2336.867789
 42
0.163342
  0
VERTEX
  8
0
 10
1432.468019
 20
2336.695853
 42
0.192261
  0
VERTEX
  8
0
 10
1432.111145
 20
2336.185986
 42
0.057763
  0
SEQEND
  0
POLYLINE
  8
0
 66
1
 70
1
  0
VERTEX
  8
0
 10
716.000000
 20
2294.126386
 42
0.002942
  0
VERTEX
  8
0
 10
707.768720
 20
2291.094369
 42
0.004880
  0
VERTEX
  8
0
 10
700.867031
 20
2288.428774
 42
0.000962
  0
VERTEX
  8
0
 10
694.869657
 20
2286.031554
 42
0.374568
  0
VERTEX
  8
0
 10
694.675000
 20
2285.650076
 42
0.039396
  0
VERTEX
  8
0
 10
695.231300
 20
2283.991978
 42
0.208071
  0
VERTEX
  8
0
 10
695.911844
 20
2283.347669
 42
0.140371
  0
VERTEX
  8
0
 10
697.019429
 20
2283.271293
 42
0.015185
  0
VERTEX
  8
0
 10
699.535418
 20
2283.888170
 42
-0.060433
  0
VERTEX
  8
0
 10
706.064865
 20
2284.875581
 42
-0.119076
  0
VERTEX
  8
0
 10
711.169787
 20
2283.799937
 42
-0.116381
  0
VERTEX
  8
0
 10
715.295968
 20
2280.487574
 42
-0.056197
  0
VERTEX
  8
0
 10
718.860172
 20
2274.679097
 42
-0.027087
  0
VERTEX
  8
0
 10
724.107445
 20
2261.690368
 42
-0.003170
  0
VERTEX
  8
0
 10
734.048218
 20
2232.035016
 42
-0.002468
  0
VERTEX
  8
0
 10
743.824506
 20
2201.741145
 42
-0.041655
  0
VERTEX
  8
0
 10
746.157316
 20
2191.500000
 42
-0.032911
  0
VERTEX
  8
0
 10
746.690281
 20
2184.398157
 42
-0.048025
  0
VERTEX
  8
0
 10
746.146245
 20
2178.151318
 42
-0.052183
  0
VERTEX
  8
0
 10
744.485494
 20
2172.526949
 42
-0.050292
  0
VERTEX
  8
0
 10
741.681171
 20
2167.293224
 42
-0.100801
  0
VERTEX
  8
0
 10
732.009867
 20
2157.773801
 42
-0.093623
  0
VERTEX
  8
0
 10
719.134614
 20
2152.483506
 42
-0.100712
  0
VERTEX
  8
0
 10
706.023452
 20
2152.451947
 42
-0.139087
  0
VERTEX
  8
0
 10
695.611643
 20
2157.803048
 42
-0.047873
  0
VERTEX
  8
0
 10
694.280268
 20
2159.308897
 42
-0.015626
  0
VERTEX
  8
0
 10
692.611213
 20
2161.764020
 42
-0.015411
  0
VERTEX
  8
0
 10
690.917318
 20
2164.622259
 42
-0.016792
  0
VERTEX
  8
0
 10
689.453404
 20
2167.500000
 42
-0.024143
  0
VERTEX
  8
0
 10
685.540646
 20
2177.053364
 42
-0.001058
  0
VERTEX
  8
0
 10
673.593876
 20
2211.005953
 42
-0.001237
  0
VERTEX
  8
0
 10
661.951913
 20
2244.583714
 42
-0.019322
  0
VERTEX
  8
0
 10
658.443280
 20
2256.229381
 42
-0.047939
  0
VERTEX
  8
0
 10
657.588429
 20
2261.588184
 42
-0.119597
  0
VERTEX
  8
0
 10
658.276970
 20
2265.467119
 42
-0.122615
  0
VERTEX
  8
0
 10
660.650724
 20
2268.539902
 42
-0.051728
  0
VERTEX
  8
0
 10
665.084698
 20
2271.354917
 42
-0.009022
  0
VERTEX
  8
0
 10
667.212659
 20
2272.367816
 42
-0.011414
  0
VERTEX
  8
0
 10
669.216415
 20
2273.223007
 42
-0.009572
  0
VERTEX
  8
0
 10
670.914282
 20
2273.864838
 42
-0.085778
  0
VERTEX
  8
0
 10
671.696344
 20
2274.000000
 42
0.223384
  0
VERTEX
  8
0
 10
672.541472
 20
2274.397407
 42
0.147090
  0
VERTEX
  8
0
 10
672.966761
 20
2275.404411
 42
0.125683
  0
VERTEX
  8
0
 10
672.794493
 20
2276.604820
 42
0.157440
  0
VERTEX
  8
0
 10
672.069490
 20
2277.457053
 42
0.228820
  0
VERTEX
  8
0
 10
669.657972
 20
2277.707977
 42
0.000616
  0
VERTEX
  8
0
 10
637.687642
 20
2266.130244
 42
0.000516
  0
VERTEX
  8
0
 10
605.563227
 20
2254.414343
 42
0.314837
  0
VERTEX
  8
0
 10
604.500000
 20
2252.893180
 42
0.243353
  0
VERTEX
  8
0
 10
604.917097
 20
2252.086952
 42
0.144779
  0
VERTEX
  8
0
 10
605.964807
 20
2251.729977
 42
0.040920
  0
VERTEX
  8
0
 10
608.199105
 20
2251.821571
 42
0.004033
  0
VERTEX
  8
0
 10
613.537629
 20
2252.524030
 42
-0.017847
  0
VERTEX
  8
0
 10
616.489721
 20
2252.829793
 42
-0.074885
  0
VERTEX
  8
0
 10
618.262509
 20
2252.684144
 42
-0.087566
  0
VERTEX
  8
0
 10
619.772660
 20
2252.034685
 42
-0.029676
  0
VERTEX
  8
0
 10
621.697902
 20
2250.600745
 42
-0.095349
  0
VERTEX
  8
0
 10
624.374094
 20
2247.299224
 42
-0.029189
  0
VERTEX
  8
0
 10
627.079295
 20
2241.442204
 42
-0.010194
  0
VERTEX
  8
0
 10
631.208730
 20
2230.266323
 42
-0.000705
  0
VERTEX
  8
0
 10
642.165432
 20
2198.500000
 42
0.002737
  0
VERTEX
  8
0
 10
646.635794
 20
2185.708120
 42
0.003296
  0
VERTEX
  8
0
 10
650.982043
 20
2173.737122
 42
0.002816
  0
VERTEX
  8
0
 10
654.764366
 20
2163.703431
 42
0.022130
  0
VERTEX
  8
0
 10
656.751111
 20
2159.137009
 42
0.046608
  0
VERTEX
  8
0
 10
662.086231
 20
2150.391636
 42
0.067865
  0
VERTEX
  8
0
 10
668.407117
 20
2143.956581
 42
0.067606
  0
VERTEX
  8
0
 10
676.239417
 20
2139.432290
 42
0.045845
  0
VERTEX
  8
0
 10
686.104143
 20
2136.411146
 42
0.028620
  0
VERTEX
  8
0
 10
691.968642
 20
2135.534787
 42
0.039944
  0
VERTEX
  8
0
 10
697.269558
 20
2135.475059
 42
0.033611
  0
VERTEX
  8
0
 10
703.157121
 20
2136.279403
 42
0.013841
  0
VERTEX
  8
0
 10
711.000000
 20
2138.121171
 42
0.049739
  0
VERTEX
  8
0
 10
726.505332
 20
2143.917269
 42
0.062181
  0
VERTEX
  8
0
 10
739.335502
 20
2152.347593
 42
0.067954
  0
VERTEX
  8
0
 10
748.812418
 20
2162.946580
 42
0.080250
  0
VERTEX
  8
0
 10
754.459002
 20
2175.139131
 42
0.077604
  0
VERTEX
  8
0
 10
755.616711
 20
2184.850287
 42
0.046196
  0
VERTEX
  8
0
 10
754.120334
 20
2196.424853
 42
0.024335
  0
VERTEX
  8
0
 10
749.399267
 20
2213.512973
 42
0.004476
  0
VERTEX
  8
0
 10
738.883448
 20
2244.500000
 42
-0.002008
  0
VERTEX
  8
0
 10
732.889877
 20
2261.878866
 42
-0.010182
  0
VERTEX
  8
0
 10
729.786178
 20
2271.644449
 42
-0.017973
  0
VERTEX
  8
0
 10
728.139797
 20
2278.054255
 42
-0.049792
  0
VERTEX
  8
0
 10
727.601697
 20
2282.673252
 42
-0.045365
  0
VERTEX
  8
0
 10
727.969677
 20
2287.623702
 42
-0.094159
  0
VERTEX
  8
0
 10
729.302474
 20
2291.245321
 42
-0.094278
  0
VERTEX
  8
0
 10
731.869357
 20
2294.122886
 42
-0.045565
  0
VERTEX
  8
0
 10
736.058543
 20
2296.768781
 42
0.031540
  0
VERTEX
  8
0
 10
738.831198
 20
2298.413224
 42
0.108792
  0
VERTEX
  8
0
 10
740.255812
 20
2299.925135
 42
0.314511
  0
VERTEX
  8
0
 10
740.178650
 20
2301.018040
 42
0.189343
  0
VERTEX
  8
0
 10
739.000000
 20
2301.687614
 42
0.113829
  0
VERTEX
  8
0
 10
737.898145
 20
2301.594491
 42
0.001656
  0
VERTEX
  8
0
 10
731.625000
 20
2299.555193
 42
0.004448
  0
VERTEX
  8
0
 10
724.348458
 20
2297.091094
 42
0.002909
  0
SEQEND
  0
POLYLINE
  8
0
 66
1
 70
1
  0
VERTEX
  8
0
 10
1584.614367
 20
2297.437440
 42
0.015306
  0
VERTEX
  8
0
 10
1584.380567
 20
2296.767559
 42
0.024645
  0
VERTEX
  8
0
 10
1584.227574
 20
2296.182826
 42
0.021670
  0
VERTEX
  8
0
 10
1584.151544
 20
2295.721377
 42
0.324917
  0
VERTEX
  8
0
 10
1584.226461
 20
2295.586923
 42
-0.016804
  0
VERTEX
  8
0
 10
1591.313024
 20
2292.007341
 42
-0.075272
  0
VERTEX
  8
0
 10
1595.000115
 20
2289.195059
 42
-0.121815
  0
VERTEX
  8
0
 10
1596.774570
 20
2286.142081
 42
-0.081157
  0
VERTEX
  8
0
 10
1597.269739
 20
2282.106888
 42
-0.066998
  0
VERTEX
  8
0
 10
1596.816334
 20
2279.522180
 42
-0.001466
  0
VERTEX
  8
0
 10
1592.915108
 20
2267.359215
 42
-0.003319
  0
VERTEX
  8
0
 10
1588.206100
 20
2253.146982
 42
-0.002233
  0
VERTEX
  8
0
 10
1582.647764
 20
2236.975092
 42
0.003043
  0
VERTEX
  8
0
 10
1572.612435
 20
2207.622784
 42
0.020055
  0
VERTEX
  8
0
 10
1568.274401
 20
2192.719010
 42
0.041038
  0
VERTEX
  8
0
 10
1566.671474
 20
2182.855955
 42
0.065148
  0
VERTEX
  8
0
 10
1567.107274
 20
2174.323737
 42
0.069321
  0
VERTEX
  8
0
 10
1570.283857
 20
2164.724093
 42
0.060654
  0
VERTEX
  8
0
 10
1576.073776
 20
2155.870260
 42
0.056952
  0
VERTEX
  8
0
 10
1584.209350
 20
2148.188535
 42
0.048473
  0
VERTEX
  8
0
 10
1594.304760
 20
2142.053550
 42
0.063312
  0
VERTEX
  8
0
 10
1616.973813
 20
2134.472306
 42
0.099961
  0
VERTEX
  8
0
 10
1637.408658
 20
2134.533134
 42
0.116640
  0
VERTEX
  8
0
 10
1654.029792
 20
2142.246006
 42
0.110379
  0
VERTEX
  8
0
 10
1665.836298
 20
2156.720418
 42
0.017372
  0
VERTEX
  8
0
 10
1669.196632
 20
2164.054767
 42
0.007980
  0
VERTEX
  8
0
 10
1673.086268
 20
2173.823717
 42
0.005361
  0
VERTEX
  8
0
 10
1678.142114
 20
2187.578586
 42
0.001635
  0
VERTEX
  8
0
 10
1685.501536
 20
2208.500000
 42
-0.001699
  0
VERTEX
  8
0
 10
1689.369665
 20
2219.491881
 42
-0.002333
  0
VERTEX
  8
0
 10
1692.927958
 20
2229.348795
 42
-0.001495
  0
VERTEX
  8
0
 10
1695.981013
 20
2237.607649
 42
-0.027756
  0
VERTEX
  8
0
 10
1697.096191
 20
2240.155474
 42
-0.078249
  0
VERTEX
  8
0
 10
1700.362449
 20
2244.689728
 42
-0.095292
  0
VERTEX
  8
0
 10
1704.672708
 20
2247.640756
 42
-0.095817
  0
VERTEX
  8
0
 10
1709.750510
 20
2248.772461
 42
-0.080004
  0
VERTEX
  8
0
 10
1715.236673
 20
2248.047237
 42
0.013740
  0
VERTEX
  8
0
 10
1717.383038
 20
2247.467932
 42
0.064897
  0
VERTEX
  8
0
 10
1718.648177
 20
2247.332647
 42
0.124157
  0
VERTEX
  8
0
 10
1719.479929
 20
2247.562961
 42
0.125665
  0
VERTEX
  8
0
 10
1720.098571
 20
2248.159491
 42
0.058667
  0
VERTEX
  8
0
 10
1720.358642
 20
2248.717153
 42
0.066280
  0
VERTEX
  8
0
 10
1720.468307
 20
2249.297350
 42
0.076151
  0
VERTEX
  8
0
 10
1720.418023
 20
2249.811093
 42
0.137952
  0
VERTEX
  8
0
 10
1720.208359
 20
2250.174113
 42
0.106683
  0
VERTEX
  8
0
 10
1718.718812
 20
2251.108627
 42
0.000364
  0
VERTEX
  8
0
 10
1698.523254
 20
2258.412451
 42
0.000444
  0
VERTEX
  8
0
 10
1678.477675
 20
2265.625427
 42
0.085710
  0
VERTEX
  8
0
 10
1676.356989
 20
2265.997131
 42
0.106753
  0
VERTEX
  8
0
 10
1675.880406
 20
2265.895456
 42
0.066740
  0
VERTEX
  8
0
 10
1675.393888
 20
2265.593020
 42
0.062381
  0
VERTEX
  8
0
 10
1674.971587
 20
2265.145792
 42
0.066531
  0
VERTEX
  8
0
 10
1674.683426
 20
2264.617406
 42
0.212127
  0
VERTEX
  8
0
 10
1674.720100
 20
2263.907985
 42
0.089287
  0
VERTEX
  8
0
 10
1675.308960
 20
2263.129841
 42
0.056630
  0
VERTEX
  8
0
 10
1676.440810
 20
2262.301560
 42
0.023748
  0
VERTEX
  8
0
 10
1678.125695
 20
2261.443319
 42
-0.033893
  0
VERTEX
  8
0
 10
1679.861331
 20
2260.514446
 42
-0.020152
  0
VERTEX
  8
0
 10
1681.798280
 20
2259.190869
 42
-0.020119
  0
VERTEX
  8
0
 10
1683.631235
 20
2257.708686
 42
-0.032524
  0
VERTEX
  8
0
 10
1685.049258
 20
2256.291117
 42
-0.128141
  0
VERTEX
  8
0
 10
1687.601378
 20
2251.212201
 42
-0.095320
  0
VERTEX
  8
0
 10
1687.731700
 20
2244.911794
 42
-0.037257
  0
VERTEX
  8
0
 10
1685.174855
 20
2234.635705
 42
-0.004178
  0
VERTEX
  8
0
 10
1677.443497
 20
2211.818683
 42
-0.004116
  0
VERTEX
  8
0
 10
1664.617513
 20
2175.936012
 42
-0.034012
  0
VERTEX
  8
0
 10
1657.565418
 20
2160.124001
 42
-0.077477
  0
VERTEX
  8
0
 10
1650.929898
 20
2151.251895
 42
-0.084548
  0
VERTEX
  8
0
 10
1642.086482
 20
2145.132777
 42
-0.104860
  0
VERTEX
  8
0
 10
1630.363321
 20
2142.416963
 42
-0.085709
  0
VERTEX
  8
0
 10
1617.614231
 20
2144.373923
 42
-0.087430
  0
VERTEX
  8
0
 10
1606.479455
 20
2150.424039
 42
-0.116234
  0
VERTEX
  8
0
 10
1599.373701
 20
2159.444392
 42
-0.048720
  0
VERTEX
  8
0
 10
1597.688834
 20
2164.231288
 42
-0.062497
  0
VERTEX
  8
0
 10
1597.147723
 20
2168.865420
 42
-0.049465
  0
VERTEX
  8
0
 10
1597.731034
 20
2174.273646
 42
-0.018849
  0
VERTEX
  8
0
 10
1599.564377
 20
2181.638133
 42
-0.012301
  0
VERTEX
  8
0
 10
1603.148060
 20
2192.970691
 42
-0.000826
  0
VERTEX
  8
0
 10
1614.238530
 20
2225.083863
 42
-0.000677
  0
VERTEX
  8
0
 10
1625.607305
 20
2257.684957
 42
-0.016319
  0
VERTEX
  8
0
 10
1629.093392
 20
2266.685565
 42
-0.088530
  0
VERTEX
  8
0
 10
1632.032329
 20
2271.183499
 42
-0.128174
  0
VERTEX
  8
0
 10
1636.032930
 20
2273.694349
 42
-0.109255
  0
VERTEX
  8
0
 10
1641.248050
 20
2274.153820
 42
-0.052926
  0
VERTEX
  8
0
 10
1647.792635
 20
2272.583268
 42
0.008944
  0
VERTEX
  8
0
 10
1650.300693
 20
2271.742677
 42
0.075966
  0
VERTEX
  8
0
 10
1651.471453
 20
2271.561107
 42
0.189603
  0
VERTEX
  8
0
 10
1652.165224
 20
2271.832222
 42
0.114773
  0
VERTEX
  8
0
 10
1652.666173
 20
2272.572445
 42
0.040323
  0
VERTEX
  8
0
 10
1652.848211
 20
2273.191935
 42
0.046958
  0
VERTEX
  8
0
 10
1652.916385
 20
2273.801626
 42
0.053173
  0
VERTEX
  8
0
 10
1652.870668
 20
2274.315451
 42
0.148684
  0
VERTEX
  8
0
 10
1652.702220
 20
2274.631114
 42
0.109109
  0
VERTEX
  8
0
 10
1651.875796
 20
2275.158543
 42
0.000050
  0
VERTEX
  8
0
 10
1621.157231
 20
2286.392013
 42
0.000299
  0
VERTEX
  8
0
 10
1592.372524
 20
2296.895514
 42
0.016431
  0
VERTEX
  8
0
 10
1586.887906
 20
2298.691337
 42
0.100948
  0
VERTEX
  8
0
 10
1586.207248
 20
2298.747520
 42
0.096586
  0
VERTEX
  8
0
 10
1585.547162
 20
2298.535032
 42
0.092330
  0
VERTEX
  8
0
 10
1584.992261
 20
2298.078780
 42
0.083218
  0
SEQEND
  0
POLYLINE
  8
0
 66
1
 70
1
  0
VERTEX
  8
0
 10
1741.666667
 20
2239.333333
 42
0.168036
  0
VERTEX
  8
0
 10
1741.204360
 20
2238.382209
 42
0.206848
  0
VERTEX
  8
0
 10
1741.482546
 20
2237.444748
 42
0.070479
  0
VERTEX
  8
0
 10
1742.785459
 20
2236.270131
 42
0.009190
  0
VERTEX
  8
0
 10
1745.930675
 20
2234.233875
 42
-0.046390
  0
VERTEX
  8
0
 10
1749.680275
 20
2231.389985
 42
-0.071324
  0
VERTEX
  8
0
 10
1752.258884
 20
2228.245156
 42
-0.083103
  0
VERTEX
  8
0
 10
1753.592518
 20
2224.892147
 42
-0.093675
  0
VERTEX
  8
0
 10
1753.682317
 20
2221.429774
 42
-0.070485
  0
VERTEX
  8
0
 10
1751.653103
 20
2214.907156
 42
-0.000610
  0
VERTEX
  8
0
 10
1729.170891
 20
2167.591049
 42
-0.000568
  0
VERTEX
  8
0
 10
1706.493571
 20
2120.152952
 42
-0.076222
  0
VERTEX
  8
0
 10
1702.904092
 20
2114.897330
 42
-0.035121
  0
VERTEX
  8
0
 10
1701.322389
 20
2113.426113
 42
-0.073134
  0
VERTEX
  8
0
 10
1699.875507
 20
2112.572513
 42
-0.069290
  0
VERTEX
  8
0
 10
1698.193356
 20
2112.145432
 42
-0.028840
  0
VERTEX
  8
0
 10
1695.848790
 20
2112.021962
 42
-0.034925
  0
VERTEX
  8
0
 10
1693.873059
 20
2112.170164
 42
-0.019871
  0
VERTEX
  8
0
 10
1691.516449
 20
2112.609787
 42
-0.019770
  0
VERTEX
  8
0
 10
1689.167321
 20
2113.244024
 42
-0.030715
  0
VERTEX
  8
0
 10
1687.207206
 20
2113.992230
 42
0.009305
  0
VERTEX
  8
0
 10
1684.736089
 20
2115.058760
 42
0.076373
  0
VERTEX
  8
0
 10
1683.546742
 20
2115.345265
 42
0.198241
  0
VERTEX
  8
0
 10
1682.834777
 20
2115.119188
 42
0.127055
  0
VERTEX
  8
0
 10
1682.324423
 20
2114.403050
 42
0.062602
  0
VERTEX
  8
0
 10
1682.164633
 20
2113.753932
 42
0.060025
  0
VERTEX
  8
0
 10
1682.167061
 20
2113.075884
 42
0.064842
  0
VERTEX
  8
0
 10
1682.323146
 20
2112.472141
 42
0.110154
  0
VERTEX
  8
0
 10
1682.617217
 20
2112.044059
 42
0.075589
  0
VERTEX
  8
0
 10
1685.789512
 20
2109.880434
 42
0.000397
  0
VERTEX
  8
0
 10
1719.813570
 20
2093.575457
 42
0.000866
  0
VERTEX
  8
0
 10
1752.332624
 20
2078.092589
 42
0.031667
  0
VERTEX
  8
0
 10
1760.000000
 20
2075.036246
 42
0.046963
  0
VERTEX
  8
0
 10
1774.577921
 20
2071.743538
 42
0.066419
  0
VERTEX
  8
0
 10
1787.869062
 20
2071.801462
 42
0.076420
  0
VERTEX
  8
0
 10
1799.208815
 20
2075.179762
 42
0.095045
  0
VERTEX
  8
0
 10
1808.071594
 20
2081.663602
 42
0.018991
  0
VERTEX
  8
0
 10
1811.259218
 20
2085.359525
 42
0.038827
  0
VERTEX
  8
0
 10
1813.407453
 20
2088.526050
 42
0.039193
  0
VERTEX
  8
0
 10
1815.028082
 20
2091.967283
 42
0.019722
  0
VERTEX
  8
0
 10
1816.549874
 20
2096.523563
 42
0.075182
  0
VERTEX
  8
0
 10
1817.768504
 20
2105.643971
 42
0.082682
  0
VERTEX
  8
0
 10
1816.154011
 20
2114.404751
 42
0.070739
  0
VERTEX
  8
0
 10
1811.474741
 20
2123.209822
 42
0.038940
  0
VERTEX
  8
0
 10
1803.531159
 20
2132.497413
 42
0.000000
  0
VERTEX
  8
0
 10
1795.363611
 20
2140.664961
 42
0.000000
  0
VERTEX
  8
0
 10
1799.431805
 20
2139.876031
 42
0.033048
  0
VERTEX
  8
0
 10
1804.766454
 20
2139.203120
 42
0.021632
  0
VERTEX
  8
0
 10
1810.966246
 20
2139.102995
 42
0.021798
  0
VERTEX
  8
0
 10
1816.961478
 20
2139.527557
 42
0.043624
  0
VERTEX
  8
0
 10
1821.612179
 20
2140.477470
 42
0.058608
  0
VERTEX
  8
0
 10
1826.395678
 20
2142.532436
 42
0.050582
  0
VERTEX
  8
0
 10
1830.835994
 20
2145.728750
 42
0.049150
  0
VERTEX
  8
0
 10
1834.661226
 20
2149.854831
 42
0.048624
  0
VERTEX
  8
0
 10
1837.623262
 20
2154.662410
 42
0.021747
  0
VERTEX
  8
0
 10
1839.044068
 20
2157.917795
 42
0.041752
  0
VERTEX
  8
0
 10
1839.843220
 20
2160.649710
 42
0.037527
  0
VERTEX
  8
0
 10
1840.225130
 20
2163.662025
 42
0.014381
  0
VERTEX
  8
0
 10
1840.319491
 20
2167.886657
 42
0.059739
  0
VERTEX
  8
0
 10
1839.058268
 20
2177.862290
 42
0.075543
  0
VERTEX
  8
0
 10
1835.477350
 20
2186.429759
 42
0.069519
  0
VERTEX
  8
0
 10
1829.236085
 20
2194.061368
 42
0.041954
  0
VERTEX
  8
0
 10
1820.008431
 20
2201.261700
 42
0.026974
  0
VERTEX
  8
0
 10
1811.435937
 20
2206.224980
 42
0.001118
  0
VERTEX
  8
0
 10
1779.812249
 20
2222.234905
 42
0.000306
  0
VERTEX
  8
0
 10
1745.727265
 20
2239.369083
 42
0.116823
  0
VERTEX
  8
0
 10
1743.063815
 20
2240.000000
 42
0.072736
  0
VERTEX
  8
0
 10
1742.735767
 20
2239.952024
 42
0.038714
  0
VERTEX
  8
0
 10
1742.352079
 20
2239.804167
 42
0.037535
  0
VERTEX
  8
0
 10
1741.975608
 20
2239.588490
 42
0.047565
  0
SEQEND
  0
POLYLINE
  8
0
 66
1
 70
1
  0
VERTEX
  8
0
 10
1792.861310
 20
2206.793280
 42
-0.064156
  0
VERTEX
  8
0
 10
1802.618786
 20
2199.409103
 42
-0.109016
  0
VERTEX
  8
0
 10
1808.183905
 20
2190.871475
 42
-0.116295
  0
VERTEX
  8
0
 10
1809.439048
 20
2181.191011
 42
-0.079872
  0
VERTEX
  8
0
 10
1806.559647
 20
2170.454369
 42
-0.085246
  0
VERTEX
  8
0
 10
1799.867879
 20
2160.492508
 42
-0.124011
  0
VERTEX
  8
0
 10
1790.955317
 20
2154.874327
 42
-0.115563
  0
VERTEX
  8
0
 10
1779.957208
 20
2153.930768
 42
-0.067790
  0
VERTEX
  8
0
 10
1767.197736
 20
2157.598354
 42
-0.011195
  0
VERTEX
  8
0
 10
1764.346022
 20
2158.932733
 42
-0.072493
  0
VERTEX
  8
0
 10
1763.043727
 20
2159.832848
 42
-0.175490
  0
VERTEX
  8
0
 10
1762.600862
 20
2160.696453
 42
-0.146836
  0
VERTEX
  8
0
 10
1762.771175
 20
2161.718085
 42
0.003955
  0
VERTEX
  8
0
 10
1763.406848
 20
2163.037851
 42
0.000078
  0
VERTEX
  8
0
 10
1766.599317
 20
2169.805063
 42
0.000187
  0
VERTEX
  8
0
 10
1770.322890
 20
2177.708911
 42
0.000125
  0
VERTEX
  8
0
 10
1774.573439
 20
2186.745959
 42
-0.002891
  0
VERTEX
  8
0
 10
1778.825854
 20
2195.658616
 42
-0.004714
  0
VERTEX
  8
0
 10
1782.548316
 20
2203.164604
 42
-0.000988
  0
VERTEX
  8
0
 10
1785.876601
 20
2209.687818
 42
-0.280106
  0
VERTEX
  8
0
 10
1786.378273
 20
2209.995959
 42
-0.110548
  0
VERTEX
  8
0
 10
1786.947141
 20
2209.871375
 42
-0.005761
  0
VERTEX
  8
0
 10
1788.644953
 20
2209.056839
 42
-0.008887
  0
VERTEX
  8
0
 10
1790.650285
 20
2208.021449
 42
-0.006323
  0
SEQEND
  0
POLYLINE
  8
0
 66
1
 70
1
  0
VERTEX
  8
0
 10
1765.154364
 20
2148.837041
 42
-0.028421
  0
VERTEX
  8
0
 10
1770.642969
 20
2145.498175
 42
-0.030721
  0
VERTEX
  8
0
 10
1775.569443
 20
2141.636928
 42
-0.033093
  0
VERTEX
  8
0
 10
1779.578343
 20
2137.571867
 42
-0.055899
  0
VERTEX
  8
0
 10
1782.279809
 20
2133.628213
 42
-0.082866
  0
VERTEX
  8
0
 10
1784.142591
 20
2128.073408
 42
-0.043148
  0
VERTEX
  8
0
 10
1784.669416
 20
2120.765294
 42
-0.042481
  0
VERTEX
  8
0
 10
1783.920014
 20
2113.234993
 42
-0.063703
  0
VERTEX
  8
0
 10
1781.898887
 20
2106.954369
 42
-0.032342
  0
VERTEX
  8
0
 10
1779.183160
 20
2102.021260
 42
-0.037853
  0
VERTEX
  8
0
 10
1775.977614
 20
2097.747776
 42
-0.039330
  0
VERTEX
  8
0
 10
1772.283967
 20
2094.145024
 42
-0.040739
  0
VERTEX
  8
0
 10
1768.112848
 20
2091.211777
 42
-0.027228
  0
VERTEX
  8
0
 10
1765.357667
 20
2089.787840
 42
-0.050625
  0
VERTEX
  8
0
 10
1762.973888
 20
2088.994154
 42
-0.041808
  0
VERTEX
  8
0
 10
1760.190183
 20
2088.611297
 42
-0.013278
  0
VERTEX
  8
0
 10
1756.000000
 20
2088.500000
 42
-0.054108
  0
VERTEX
  8
0
 10
1747.653203
 20
2089.405908
 42
-0.083033
  0
VERTEX
  8
0
 10
1740.920130
 20
2092.110078
 42
-0.106236
  0
VERTEX
  8
0
 10
1736.565774
 20
2096.242644
 42
-0.151096
  0
VERTEX
  8
0
 10
1735.000000
 20
2101.305740
 42
-0.098275
  0
VERTEX
  8
0
 10
1735.299328
 20
2102.813940
 42
-0.003297
  0
VERTEX
  8
0
 10
1737.670324
 20
2108.446404
 42
-0.006130
  0
VERTEX
  8
0
 10
1740.607443
 20
2115.071578
 42
-0.004221
  0
VERTEX
  8
0
 10
1744.090466
 20
2122.508687
 42
0.000618
  0
VERTEX
  8
0
 10
1747.743493
 20
2130.164666
 42
0.000715
  0
VERTEX
  8
0
 10
1751.202243
 20
2137.463489
 42
0.000637
  0
VERTEX
  8
0
 10
1754.114351
 20
2143.651964
 42
0.004242
  0
VERTEX
  8
0
 10
1755.535437
 20
2146.750000
 42
-0.009864
  0
VERTEX
  8
0
 10
1756.485925
 20
2148.762091
 42
-0.015228
  0
VERTEX
  8
0
 10
1757.393665
 20
2150.457812
 42
-0.009541
  0
VERTEX
  8
0
 10
1758.203377
 20
2151.805465
 42
-0.258189
  0
VERTEX
  8
0
 10
1758.554993
 20
2152.000000
 42
-0.108885
  0
VERTEX
  8
0
 10
1759.008248
 20
2151.900111
 42
-0.003277
  0
VERTEX
  8
0
 10
1760.767892
 20
2151.070881
 42
-0.006357
  0
VERTEX
  8
0
 10
1762.832259
 20
2150.048992
 42
-0.004332
  0
SEQEND
  0
POLYLINE
  8
0
 66
1
 70
1
  0
VERTEX
  8
0
 10
538.349513
 20
2221.537901
 42
0.025634
  0
VERTEX
  8
0
 10
530.459055
 20
2218.879614
 42
0.010822
  0
VERTEX
  8
0
 10
520.147436
 20
2214.545969
 42
0.007071
  0
VERTEX
  8
0
 10
505.669427
 20
2207.842155
 42
0.001994
  0
VERTEX
  8
0
 10
483.293193
 20
2196.984319
 42
0.001348
  0
VERTEX
  8
0
 10
464.008325
 20
2187.466771
 42
0.012469
  0
VERTEX
  8
0
 10
455.779318
 20
2183.118800
 42
0.022304
  0
VERTEX
  8
0
 10
451.418212
 20
2180.411122
 42
0.382687
  0
VERTEX
  8
0
 10
451.050468
 20
2178.905701
 42
0.066102
  0
VERTEX
  8
0
 10
451.753000
 20
2177.928697
 42
0.212954
  0
VERTEX
  8
0
 10
452.474554
 20
2177.627250
 42
0.093116
  0
VERTEX
  8
0
 10
453.571441
 20
2177.860585
 42
0.007705
  0
VERTEX
  8
0
 10
456.257275
 20
2179.030187
 42
-0.045051
  0
VERTEX
  8
0
 10
460.665251
 20
2180.570006
 42
-0.074865
  0
VERTEX
  8
0
 10
464.574869
 20
2180.948781
 42
-0.086755
  0
VERTEX
  8
0
 10
468.006456
 20
2180.159956
 42
-0.084612
  0
VERTEX
  8
0
 10
471.000430
 20
2178.250000
 42
-0.086597
  0
VERTEX
  8
0
 10
473.208734
 20
2175.412639
 42
-0.004203
  0
VERTEX
  8
0
 10
478.746922
 20
2164.779839
 42
-0.005117
  0
VERTEX
  8
0
 10
486.297625
 20
2149.599065
 42
-0.001565
  0
VERTEX
  8
0
 10
497.404206
 20
2126.500000
 42
-0.001158
  0
VERTEX
  8
0
 10
506.451127
 20
2107.419099
 42
-0.001720
  0
VERTEX
  8
0
 10
514.279124
 20
2090.660525
 42
-0.000746
  0
VERTEX
  8
0
 10
520.898806
 20
2076.304582
 42
-0.035047
  0
VERTEX
  8
0
 10
522.030771
 20
2073.301788
 42
-0.070848
  0
VERTEX
  8
0
 10
522.648708
 20
2069.184496
 42
-0.113560
  0
VERTEX
  8
0
 10
521.881482
 20
2065.731490
 42
-0.095622
  0
VERTEX
  8
0
 10
519.543753
 20
2062.561689
 42
-0.039659
  0
VERTEX
  8
0
 10
515.338492
 20
2059.261400
 42
0.012304
  0
VERTEX
  8
0
 10
511.853070
 20
2056.821556
 42
0.084331
  0
VERTEX
  8
0
 10
510.404559
 20
2055.319314
 42
0.287683
  0
VERTEX
  8
0
 10
510.363692
 20
2054.263532
 42
0.172388
  0
VERTEX
  8
0
 10
511.350644
 20
2053.418940
 42
0.210495
  0
VERTEX
  8
0
 10
514.216140
 20
2053.558096
 42
0.000824
  0
VERTEX
  8
0
 10
543.944862
 20
2068.476660
 42
0.000686
  0
VERTEX
  8
0
 10
573.831138
 20
2083.587423
 42
0.282500
  0
VERTEX
  8
0
 10
575.000000
 20
2085.491106
 42
0.206859
  0
VERTEX
  8
0
 10
574.560031
 20
2086.509051
 42
0.194577
  0
VERTEX
  8
0
 10
573.501759
 20
2086.920145
 42
0.078145
  0
VERTEX
  8
0
 10
571.562860
 20
2086.587703
 42
0.017501
  0
VERTEX
  8
0
 10
568.414909
 20
2085.400000
 42
-0.044447
  0
VERTEX
  8
0
 10
564.785618
 20
2084.249658
 42
-0.055572
  0
VERTEX
  8
0
 10
561.274475
 20
2083.872248
 42
-0.061707
  0
VERTEX
  8
0
 10
558.092373
 20
2084.279237
 42
-0.082580
  0
VERTEX
  8
0
 10
555.433993
 20
2085.451292
 42
-0.109643
  0
VERTEX
  8
0
 10
553.837380
 20
2087.090149
 42
-0.010627
  0
VERTEX
  8
0
 10
551.003659
 20
2091.897015
 42
-0.010642
  0
VERTEX
  8
0
 10
547.367536
 20
2098.711790
 42
-0.004087
  0
VERTEX
  8
0
 10
542.595365
 20
2108.327352
 42
-0.001303
  0
VERTEX
  8
0
 10
538.591663
 20
2116.617724
 42
-0.001891
  0
VERTEX
  8
0
 10
535.105014
 20
2123.956796
 42
-0.000945
  0
VERTEX
  8
0
 10
532.180227
 20
2130.204399
 42
-0.032166
  0
VERTEX
  8
0
 10
531.586018
 20
2131.728980
 42
-0.086875
  0
VERTEX
  8
0
 10
531.422104
 20
2132.944744
 42
-0.157257
  0
VERTEX
  8
0
 10
531.764194
 20
2133.878256
 42
-0.091469
  0
VERTEX
  8
0
 10
532.760768
 20
2134.761439
 42
-0.017745
  0
VERTEX
  8
0
 10
534.871716
 20
2135.934554
 42
0.000000
  0
VERTEX
  8
0
 10
538.848323
 20
2137.963268
 42
0.000000
  0
VERTEX
  8
0
 10
570.000764
 20
2120.467701
 42
0.000316
  0
VERTEX
  8
0
 10
582.163625
 20
2113.646994
 42
0.000457
  0
VERTEX
  8
0
 10
592.920053
 20
2107.636805
 42
0.000231
  0
VERTEX
  8
0
 10
602.057534
 20
2102.547680
 42
0.007613
  0
VERTEX
  8
0
 10
604.277893
 20
2101.356296
 42
0.000000
  0
VERTEX
  8
0
 10
607.402580
 20
2099.740457
 42
0.000000
  0
VERTEX
  8
0
 10
627.131875
 20
2109.565674
 42
0.002496
  0
VERTEX
  8
0
 10
638.184846
 20
2115.139098
 42
0.019559
  0
VERTEX
  8
0
 10
643.205044
 20
2117.954736
 42
0.042698
  0
VERTEX
  8
0
 10
645.706901
 20
2119.800430
 42
0.348471
  0
VERTEX
  8
0
 10
645.943391
 20
2121.105775
 42
0.078416
  0
VERTEX
  8
0
 10
645.303560
 20
2121.951095
 42
0.156782
  0
VERTEX
  8
0
 10
644.558622
 20
2122.315863
 42
0.093418
  0
VERTEX
  8
0
 10
643.469911
 20
2122.270127
 42
0.017378
  0
VERTEX
  8
0
 10
641.528459
 20
2121.747353
 42
-0.033150
  0
VERTEX
  8
0
 10
639.690276
 20
2121.314033
 42
-0.043361
  0
VERTEX
  8
0
 10
637.969880
 20
2121.178597
 42
-0.042141
  0
VERTEX
  8
0
 10
636.213710
 20
2121.341222
 42
-0.028881
  0
VERTEX
  8
0
 10
634.265653
 20
2121.806227
 42
-0.049722
  0
VERTEX
  8
0
 10
630.309187
 20
2123.439143
 42
-0.000913
  0
VERTEX
  8
0
 10
610.333654
 20
2134.160965
 42
-0.002581
  0
VERTEX
  8
0
 10
590.659431
 20
2144.898819
 42
-0.005153
  0
VERTEX
  8
0
 10
575.228798
 20
2153.633054
 42
0.000000
  0
VERTEX
  8
0
 10
570.957597
 20
2156.109158
 42
0.000000
  0
VERTEX
  8
0
 10
575.864516
 20
2161.804579
 42
0.040721
  0
VERTEX
  8
0
 10
581.437271
 20
2169.451483
 42
0.058915
  0
VERTEX
  8
0
 10
584.924273
 20
2177.041134
 42
0.063798
  0
VERTEX
  8
0
 10
586.371593
 20
2184.751113
 42
0.059887
  0
VERTEX
  8
0
 10
585.879095
 20
2192.750000
 42
0.057955
  0
VERTEX
  8
0
 10
583.254258
 20
2201.329359
 42
0.060521
  0
VERTEX
  8
0
 10
578.757167
 20
2208.942053
 42
0.061038
  0
VERTEX
  8
0
 10
572.607844
 20
2215.203064
 42
0.060766
  0
VERTEX
  8
0
 10
565.120011
 20
2219.805125
 42
0.056533
  0
VERTEX
  8
0
 10
559.276697
 20
2221.720549
 42
0.034808
  0
VERTEX
  8
0
 10
552.095740
 20
2222.690248
 42
0.034518
  0
VERTEX
  8
0
 10
544.739498
 20
2222.658088
 42
0.050122
  0
SEQEND
  0
POLYLINE
  8
0
 66
1
 70
1
  0
VERTEX
  8
0
 10
537.984319
 20
2204.008000
 42
-0.086434
  0
VERTEX
  8
0
 10
543.532978
 20
2199.840578
 42
-0.043995
  0
VERTEX
  8
0
 10
548.940783
 20
2192.961719
 42
-0.042210
  0
VERTEX
  8
0
 10
553.377599
 20
2184.721779
 42
-0.051263
  0
VERTEX
  8
0
 10
556.027945
 20
2176.365390
 42
-0.072462
  0
VERTEX
  8
0
 10
556.481870
 20
2168.811672
 42
-0.084588
  0
VERTEX
  8
0
 10
554.681976
 20
2161.862084
 42
-0.080343
  0
VERTEX
  8
0
 10
550.577087
 20
2155.631261
 42
-0.058082
  0
VERTEX
  8
0
 10
544.269015
 20
2150.188609
 42
-0.014875
  0
VERTEX
  8
0
 10
538.501075
 20
2146.523195
 42
-0.019581
  0
VERTEX
  8
0
 10
533.022239
 20
2143.550026
 42
-0.013113
  0
VERTEX
  8
0
 10
528.327821
 20
2141.386765
 42
-0.318027
  0
VERTEX
  8
0
 10
526.993220
 20
2141.671557
 42
-0.074980
  0
VERTEX
  8
0
 10
525.768477
 20
2143.480895
 42
-0.000226
  0
VERTEX
  8
0
 10
513.606402
 20
2168.988207
 42
-0.000156
  0
VERTEX
  8
0
 10
501.330714
 20
2194.784612
 42
-0.111419
  0
VERTEX
  8
0
 10
501.000000
 20
2196.250292
 42
-0.287604
  0
VERTEX
  8
0
 10
501.778621
 20
2197.491957
 42
-0.004596
  0
VERTEX
  8
0
 10
509.612569
 20
2201.193625
 42
-0.011434
  0
VERTEX
  8
0
 10
517.191134
 20
2204.481744
 42
-0.046021
  0
VERTEX
  8
0
 10
522.015392
 20
2205.945118
 42
-0.038106
  0
VERTEX
  8
0
 10
526.244279
 20
2206.482351
 42
-0.042752
  0
VERTEX
  8
0
 10
530.343312
 20
2206.337740
 42
-0.043800
  0
VERTEX
  8
0
 10
534.269437
 20
2205.508054
 42
-0.044013
  0
SEQEND
  0
POLYLINE
  8
0
 66
1
 70
1
  0
VERTEX
  8
0
 10
1110.565866
 20
2105.232533
 42
0.131675
  0
VERTEX
  8
0
 10
1110.345964
 20
2104.851613
 42
0.022858
  0
VERTEX
  8
0
 10
1110.166223
 20
2104.032471
 42
0.023464
  0
VERTEX
  8
0
 10
1110.041486
 20
2103.026557
 42
0.019116
  0
VERTEX
  8
0
 10
1110.000000
 20
2101.941835
 42
0.084076
  0
VERTEX
  8
0
 10
1110.269724
 20
2100.349118
 42
0.174050
  0
VERTEX
  8
0
 10
1111.052722
 20
2099.381169
 42
0.073843
  0
VERTEX
  8
0
 10
1112.768063
 20
2098.658821
 42
0.007263
  0
VERTEX
  8
0
 10
1117.137321
 20
2097.605192
 42
-0.015138
  0
VERTEX
  8
0
 10
1120.112738
 20
2096.837907
 42
-0.013534
  0
VERTEX
  8
0
 10
1123.150724
 20
2095.865707
 42
-0.013711
  0
VERTEX
  8
0
 10
1125.831981
 20
2094.843588
 42
-0.040510
  0
VERTEX
  8
0
 10
1127.585860
 20
2093.946936
 42
-0.053249
  0
VERTEX
  8
0
 10
1130.498957
 20
2091.686194
 42
-0.020313
  0
VERTEX
  8
0
 10
1134.056624
 20
2087.971464
 42
-0.018265
  0
VERTEX
  8
0
 10
1137.924569
 20
2083.252915
 42
-0.013617
  0
VERTEX
  8
0
 10
1141.851607
 20
2077.785741
 42
0.000000
  0
VERTEX
  8
0
 10
1145.046900
 20
2073.071483
 42
0.000000
  0
VERTEX
  8
0
 10
1139.540296
 20
1983.285741
 42
-0.000765
  0
VERTEX
  8
0
 10
1137.349839
 20
1948.442729
 42
-0.001156
  0
VERTEX
  8
0
 10
1135.326039
 20
1918.112062
 42
-0.000434
  0
VERTEX
  8
0
 10
1133.501631
 20
1892.019108
 42
-0.027956
  0
VERTEX
  8
0
 10
1132.926568
 20
1887.500000
 42
-0.038806
  0
VERTEX
  8
0
 10
1130.719182
 20
1879.203581
 42
-0.062877
  0
VERTEX
  8
0
 10
1127.462156
 20
1872.682247
 42
-0.072044
  0
VERTEX
  8
0
 10
1123.072431
 20
1867.802946
 42
-0.073148
  0
VERTEX
  8
0
 10
1117.500000
 20
1864.399535
 42
-0.043541
  0
VERTEX
  8
0
 10
1115.365246
 20
1863.703382
 42
-0.013261
  0
VERTEX
  8
0
 10
1112.031250
 20
1863.021706
 42
-0.013168
  0
VERTEX
  8
0
 10
1108.239074
 20
1862.453125
 42
-0.014013
  0
VERTEX
  8
0
 10
1104.500000
 20
1862.098853
 42
0.000000
  0
VERTEX
  8
0
 10
1095.500000
 20
1861.500000
 42
0.000000
  0
VERTEX
  8
0
 10
1095.186642
 20
1858.250000
 42
0.023547
  0
VERTEX
  8
0
 10
1095.125353
 20
1857.001139
 42
0.038158
  0
VERTEX
  8
0
 10
1095.204256
 20
1855.941539
 42
0.045156
  0
VERTEX
  8
0
 10
1095.391758
 20
1855.178172
 42
0.305153
  0
VERTEX
  8
0
 10
1095.686642
 20
1854.955238
 42
-0.002699
  0
VERTEX
  8
0
 10
1096.339363
 20
1854.915781
 42
-0.000004
  0
VERTEX
  8
0
 10
1108.745451
 20
1854.098507
 42
-0.000032
  0
VERTEX
  8
0
 10
1122.647681
 20
1853.181674
 42
-0.000020
  0
VERTEX
  8
0
 10
1139.000000
 20
1852.101564
 42
0.001014
  0
VERTEX
  8
0
 10
1155.348050
 20
1851.054375
 42
0.001648
  0
VERTEX
  8
0
 10
1169.235938
 20
1850.238998
 42
0.000203
  0
VERTEX
  8
0
 10
1181.606844
 20
1849.558646
 42
0.140303
  0
VERTEX
  8
0
 10
1182.250000
 20
1849.705343
 42
0.178015
  0
VERTEX
  8
0
 10
1182.540609
 20
1850.039762
 42
0.033780
  0
VERTEX
  8
0
 10
1182.779687
 20
1850.825011
 42
0.032284
  0
VERTEX
  8
0
 10
1182.945067
 20
1851.827698
 42
0.024735
  0
VERTEX
  8
0
 10
1183.000000
 20
1852.937456
 42
0.075533
  0
VERTEX
  8
0
 10
1182.745383
 20
1854.613304
 42
0.199391
  0
VERTEX
  8
0
 10
1181.982995
 20
1855.527350
 42
0.077862
  0
VERTEX
  8
0
 10
1180.283905
 20
1856.102859
 42
0.005882
  0
VERTEX
  8
0
 10
1175.469915
 20
1856.876838
 42
-0.058607
  0
VERTEX
  8
0
 10
1164.137489
 20
1859.948956
 42
-0.097370
  0
VERTEX
  8
0
 10
1155.864451
 20
1865.321263
 42
-0.100803
  0
VERTEX
  8
0
 10
1150.424948
 20
1873.275501
 42
-0.066490
  0
VERTEX
  8
0
 10
1147.501923
 20
1884.000000
 42
-0.047735
  0
VERTEX
  8
0
 10
1147.297881
 20
1889.379681
 42
-0.000109
  0
VERTEX
  8
0
 10
1151.897754
 20
1969.001901
 42
-0.000089
  0
VERTEX
  8
0
 10
1156.556222
 20
2049.087378
 42
-0.059240
  0
VERTEX
  8
0
 10
1157.325355
 20
2053.396689
 42
-0.623240
  0
VERTEX
  8
0
 10
1157.658152
 20
2053.450794
 42
-0.000039
  0
VERTEX
  8
0
 10
1180.106374
 20
2021.821260
 42
-0.000867
  0
VERTEX
  8
0
 10
1204.988004
 20
1986.628185
 42
-0.000516
  0
VERTEX
  8
0
 10
1234.495190
 20
1944.646689
 42
0.000357
  0
VERTEX
  8
0
 10
1280.765375
 20
1878.770865
 42
0.003809
  0
VERTEX
  8
0
 10
1299.791697
 20
1852.156950
 42
0.003138
  0
VERTEX
  8
0
 10
1311.408199
 20
1836.375979
 42
0.236774
  0
VERTEX
  8
0
 10
1314.150980
 20
1835.000000
 42
0.046088
  0
VERTEX
  8
0
 10
1315.636732
 20
1835.137243
 42
0.150722
  0
VERTEX
  8
0
 10
1316.500643
 20
1835.590761
 42
0.128896
  0
VERTEX
  8
0
 10
1317.036369
 20
1836.501311
 42
0.029968
  0
VERTEX
  8
0
 10
1317.419182
 20
1838.250000
 42
0.023020
  0
VERTEX
  8
0
 10
1317.702008
 20
1840.821044
 42
0.000090
  0
VERTEX
  8
0
 10
1319.557266
 20
1870.067187
 42
0.000463
  0
VERTEX
  8
0
 10
1321.624798
 20
1903.240207
 42
0.000291
  0
VERTEX
  8
0
 10
1323.981866
 20
1942.000000
 42
-0.000429
  0
VERTEX
  8
0
 10
1326.372278
 20
1981.130420
 42
-0.000632
  0
VERTEX
  8
0
 10
1328.544548
 20
2015.492398
 42
-0.000287
  0
VERTEX
  8
0
 10
1330.451575
 20
2044.803623
 42
-0.012111
  0
VERTEX
  8
0
 10
1331.014618
 20
2051.059228
 42
-0.016663
  0
VERTEX
  8
0
 10
1332.215564
 20
2059.152733
 42
-0.034882
  0
VERTEX
  8
0
 10
1333.791941
 20
2065.316834
 42
-0.044397
  0
VERTEX
  8
0
 10
1335.874787
 20
2070.124290
 42
-0.059354
  0
VERTEX
  8
0
 10
1338.620012
 20
2074.001159
 42
-0.055873
  0
VERTEX
  8
0
 10
1342.043335
 20
2077.030724
 42
-0.055821
  0
VERTEX
  8
0
 10
1346.053500
 20
2079.228239
 42
-0.046768
  0
VERTEX
  8
0
 10
1351.049444
 20
2080.753434
 42
-0.024268
  0
VERTEX
  8
0
 10
1357.500000
 20
2081.756766
 42
0.000000
  0
VERTEX
  8
0
 10
1364.500000
 20
2082.500000
 42
0.000000
  0
VERTEX
  8
0
 10
1364.799031
 20
2086.059873
 42
0.000000
  0
VERTEX
  8
0
 10
1365.098061
 20
2089.619746
 42
0.000000
  0
VERTEX
  8
0
 10
1326.799031
 20
2091.864850
 42
-0.000807
  0
VERTEX
  8
0
 10
1311.958021
 20
2092.758869
 42
-0.001233
  0
VERTEX
  8
0
 10
1299.089403
 20
2093.586777
 42
-0.000416
  0
VERTEX
  8
0
 10
1287.967853
 20
2094.339141
 42
-0.033769
  0
VERTEX
  8
0
 10
1286.250000
 20
2094.574030
 42
0.051968
  0
VERTEX
  8
0
 10
1285.014621
 20
2094.697432
 42
0.232302
  0
VERTEX
  8
0
 10
1284.381225
 20
2094.382992
 42
0.146264
  0
VERTEX
  8
0
 10
1284.069976
 20
2093.563622
 42
0.018142
  0
VERTEX
  8
0
 10
1284.000000
 20
2091.635683
 42
0.079997
  0
VERTEX
  8
0
 10
1284.359941
 20
2089.400350
 42
0.164664
  0
VERTEX
  8
0
 10
1285.413683
 20
2088.001792
 42
0.117378
  0
VERTEX
  8
0
 10
1287.390465
 20
2087.246405
 42
0.031340
  0
VERTEX
  8
0
 10
1290.774983
 20
2087.013655
 42
-0.070637
  0
VERTEX
  8
0
 10
1294.132773
 20
2086.516333
 42
-0.020080
  0
VERTEX
  8
0
 10
1299.139211
 20
2084.811379
 42
-0.020856
  0
VERTEX
  8
0
 10
1304.109022
 20
2082.650797
 42
-0.049993
  0
VERTEX
  8
0
 10
1307.526948
 20
2080.547243
 42
-0.075997
  0
VERTEX
  8
0
 10
1310.951781
 20
2076.997496
 42
-0.052167
  0
VERTEX
  8
0
 10
1313.695519
 20
2072.110114
 42
-0.046624
  0
VERTEX
  8
0
 10
1315.626938
 20
2066.165173
 42
-0.036603
  0
VERTEX
  8
0
 10
1316.625244
 20
2059.458785
 42
-0.031548
  0
VERTEX
  8
0
 10
1316.742741
 20
2049.264913
 42
-0.000760
  0
VERTEX
  8
0
 10
1314.234664
 20
2002.050241
 42
-0.000993
  0
VERTEX
  8
0
 10
1311.616133
 20
1955.818112
 42
-0.022568
  0
VERTEX
  8
0
 10
1310.238144
 20
1942.576796
 42
0.000000
  0
VERTEX
  8
0
 10
1309.500000
 20
1937.653591
 42
0.000000
  0
VERTEX
  8
0
 10
1254.150351
 20
2018.329365
 42
0.000429
  0
VERTEX
  8
0
 10
1232.860711
 20
2049.303440
 42
0.000704
  0
VERTEX
  8
0
 10
1214.782557
 20
2075.477890
 42
0.000050
  0
VERTEX
  8
0
 10
1198.496681
 20
2098.981536
 42
0.103157
  0
VERTEX
  8
0
 10
1197.857368
 20
2099.588152
 42
0.119266
  0
VERTEX
  8
0
 10
1197.047731
 20
2099.853015
 42
0.000377
  0
VERTEX
  8
0
 10
1186.261577
 20
2100.696059
 42
0.002100
  0
VERTEX
  8
0
 10
1174.038591
 20
2101.590510
 42
0.001310
  0
VERTEX
  8
0
 10
1159.707017
 20
2102.541053
 42
-0.000202
  0
VERTEX
  8
0
 10
1145.041274
 20
2103.481137
 42
-0.000272
  0
VERTEX
  8
0
 10
1131.759847
 20
2104.345132
 42
-0.000185
  0
VERTEX
  8
0
 10
1120.614964
 20
2105.080371
 42
-0.002915
  0
VERTEX
  8
0
 10
1116.815866
 20
2105.354671
 42
0.009939
  0
VERTEX
  8
0
 10
1114.596970
 20
2105.483575
 42
0.014424
  0
VERTEX
  8
0
 10
1112.635224
 20
2105.501831
 42
0.009936
  0
VERTEX
  8
0
 10
1111.023724
 20
2105.438286
 42
0.183549
  0
SEQEND
  0
POLYLINE
  8
0
 66
1
 70
1
  0
VERTEX
  8
0
 10
902.750323
 20
2073.160526
 42
0.000385
  0
VERTEX
  8
0
 10
842.112241
 20
2060.552244
 42
0.004410
  0
VERTEX
  8
0
 10
818.278630
 20
2055.357677
 42
0.003755
  0
VERTEX
  8
0
 10
804.227806
 20
2052.054045
 42
0.348080
  0
VERTEX
  8
0
 10
803.015636
 20
2050.500000
 42
0.063841
  0
VERTEX
  8
0
 10
803.358275
 20
2047.977439
 42
0.209731
  0
VERTEX
  8
0
 10
804.386416
 20
2046.695527
 42
0.146666
  0
VERTEX
  8
0
 10
806.322057
 20
2046.323087
 42
0.027531
  0
VERTEX
  8
0
 10
809.925809
 20
2046.890669
 42
-0.054412
  0
VERTEX
  8
0
 10
821.485876
 20
2048.080270
 42
-0.101233
  0
VERTEX
  8
0
 10
830.667011
 20
2046.143043
 42
-0.121063
  0
VERTEX
  8
0
 10
837.282897
 20
2041.106486
 42
-0.100648
  0
VERTEX
  8
0
 10
841.365780
 20
2033.235970
 42
-0.020219
  0
VERTEX
  8
0
 10
844.297344
 20
2021.124816
 42
-0.000213
  0
VERTEX
  8
0
 10
861.204953
 20
1936.248342
 42
-0.000171
  0
VERTEX
  8
0
 10
878.244055
 20
1850.368035
 42
-0.025608
  0
VERTEX
  8
0
 10
879.689582
 20
1840.421269
 42
-0.026051
  0
VERTEX
  8
0
 10
879.930117
 20
1834.560864
 42
-0.058060
  0
VERTEX
  8
0
 10
879.365374
 20
1830.140094
 42
-0.069286
  0
VERTEX
  8
0
 10
877.893720
 20
1826.470486
 42
-0.053792
  0
VERTEX
  8
0
 10
875.365771
 20
1822.983104
 42
-0.058317
  0
VERTEX
  8
0
 10
872.130828
 20
1820.148235
 42
-0.042621
  0
VERTEX
  8
0
 10
867.976556
 20
1817.781288
 42
-0.034791
  0
VERTEX
  8
0
 10
862.670040
 20
1815.764822
 42
-0.018769
  0
VERTEX
  8
0
 10
855.901893
 20
1813.992893
 42
0.007951
  0
VERTEX
  8
0
 10
852.247880
 20
1813.120259
 42
0.119175
  0
VERTEX
  8
0
 10
851.098727
 20
1812.510917
 42
0.228855
  0
VERTEX
  8
0
 10
850.709927
 20
1811.581087
 42
0.039013
  0
VERTEX
  8
0
 10
850.969463
 20
1809.624862
 42
0.030015
  0
VERTEX
  8
0
 10
851.420078
 20
1807.996042
 42
0.124872
  0
VERTEX
  8
0
 10
851.972781
 20
1807.149434
 42
0.158030
  0
VERTEX
  8
0
 10
852.784498
 20
1806.776672
 42
0.057302
  0
VERTEX
  8
0
 10
854.067570
 20
1806.773396
 42
0.022035
  0
VERTEX
  8
0
 10
856.964780
 20
1807.229035
 42
0.000252
  0
VERTEX
  8
0
 10
876.134933
 20
1811.126156
 42
0.000560
  0
VERTEX
  8
0
 10
902.833542
 20
1816.598931
 42
0.000144
  0
VERTEX
  8
0
 10
946.000000
 20
1825.510693
 42
-0.000062
  0
VERTEX
  8
0
 10
955.321868
 20
1827.436791
 42
-0.000012
  0
VERTEX
  8
0
 10
972.042515
 20
1830.889048
 42
-0.000013
  0
VERTEX
  8
0
 10
991.521197
 20
1834.909724
 42
-0.000012
  0
VERTEX
  8
0
 10
1011.485156
 20
1839.029529
 42
0.000375
  0
VERTEX
  8
0
 10
1030.285997
 20
1842.923555
 42
0.000620
  0
VERTEX
  8
0
 10
1046.156667
 20
1846.243660
 42
0.000028
  0
VERTEX
  8
0
 10
1060.477214
 20
1849.258879
 42
0.145468
  0
VERTEX
  8
0
 10
1060.728165
 20
1849.394832
 42
0.213526
  0
VERTEX
  8
0
 10
1060.961838
 20
1850.006959
 42
0.000038
  0
VERTEX
  8
0
 10
1058.958645
 20
1885.649629
 42
0.000389
  0
VERTEX
  8
0
 10
1057.078283
 20
1918.605312
 42
0.016721
  0
VERTEX
  8
0
 10
1056.441102
 20
1925.571738
 42
0.014833
  0
VERTEX
  8
0
 10
1056.054050
 20
1928.060035
 42
0.146130
  0
VERTEX
  8
0
 10
1055.575236
 20
1928.992962
 42
0.206734
  0
VERTEX
  8
0
 10
1054.739282
 20
1929.345102
 42
0.034185
  0
VERTEX
  8
0
 10
1052.955664
 20
1929.206801
 42
0.083293
  0
VERTEX
  8
0
 10
1050.993724
 20
1928.574157
 42
0.172285
  0
VERTEX
  8
0
 10
1049.908465
 20
1927.412573
 42
0.069253
  0
VERTEX
  8
0
 10
1049.260293
 20
1925.088074
 42
0.006065
  0
VERTEX
  8
0
 10
1048.516791
 20
1919.000000
 42
-0.025471
  0
VERTEX
  8
0
 10
1047.375843
 20
1911.944563
 42
-0.017776
  0
VERTEX
  8
0
 10
1045.405861
 20
1904.125273
 42
-0.017635
  0
VERTEX
  8
0
 10
1042.856256
 20
1896.369736
 42
-0.023127
  0
VERTEX
  8
0
 10
1039.958833
 20
1889.500000
 42
-0.072319
  0
VERTEX
  8
0
 10
1028.597997
 20
1872.523452
 42
-0.073455
  0
VERTEX
  8
0
 10
1012.926763
 20
1859.589317
 42
-0.061656
  0
VERTEX
  8
0
 10
991.807961
 20
1850.153180
 42
-0.033169
  0
VERTEX
  8
0
 10
964.000000
 20
1843.620727
 42
-0.041613
  0
VERTEX
  8
0
 10
952.554814
 20
1842.688892
 42
-0.145439
  0
VERTEX
  8
0
 10
945.534770
 20
1844.789834
 42
-0.145747
  0
VERTEX
  8
0
 10
940.809868
 20
1850.380187
 42
-0.041851
  0
VERTEX
  8
0
 10
937.113215
 20
1861.222548
 42
-0.011926
  0
VERTEX
  8
0
 10
933.465933
 20
1877.450297
 42
-0.002126
  0
VERTEX
  8
0
 10
927.504040
 20
1907.959835
 42
-0.000212
  0
VERTEX
  8
0
 10
920.949277
 20
1942.357094
 42
-0.248174
  0
VERTEX
  8
0
 10
921.361085
 20
1943.694808
 42
-0.179800
  0
VERTEX
  8
0
 10
922.065040
 20
1944.017521
 42
-0.004119
  0
VERTEX
  8
0
 10
925.797300
 20
1944.263475
 42
-0.008683
  0
VERTEX
  8
0
 10
930.228584
 20
1944.441714
 42
-0.005709
  0
VERTEX
  8
0
 10
935.332944
 20
1944.500000
 42
-0.004717
  0
VERTEX
  8
0
 10
943.116584
 20
1944.426575
 42
-0.028902
  0
VERTEX
  8
0
 10
947.118797
 20
1944.119189
 42
-0.050913
  0
VERTEX
  8
0
 10
949.996842
 20
1943.426528
 42
-0.037577
  0
VERTEX
  8
0
 10
953.000000
 20
1942.110409
 42
-0.073878
  0
VERTEX
  8
0
 10
960.820324
 20
1936.340626
 42
-0.040905
  0
VERTEX
  8
0
 10
968.533349
 20
1927.292312
 42
-0.037206
  0
VERTEX
  8
0
 10
975.491220
 20
1915.937610
 42
-0.032481
  0
VERTEX
  8
0
 10
981.052154
 20
1903.158473
 42
0.007404
  0
VERTEX
  8
0
 10
982.570706
 20
1899.127885
 42
0.092704
  0
VERTEX
  8
0
 10
983.432743
 20
1897.752903
 42
0.201070
  0
VERTEX
  8
0
 10
984.497064
 20
1897.265976
 42
0.057469
  0
VERTEX
  8
0
 10
986.344446
 20
1897.418889
 42
0.007371
  0
VERTEX
  8
0
 10
987.520018
 20
1897.672081
 42
0.010331
  0
VERTEX
  8
0
 10
988.561283
 20
1897.935234
 42
0.006962
  0
VERTEX
  8
0
 10
989.419004
 20
1898.183850
 42
0.122951
  0
VERTEX
  8
0
 10
989.664708
 20
1898.331375
 42
0.250882
  0
VERTEX
  8
0
 10
989.933310
 20
1899.219209
 42
0.000028
  0
VERTEX
  8
0
 10
977.309977
 20
1962.173590
 42
0.000047
  0
VERTEX
  8
0
 10
964.743769
 20
2024.794671
 42
0.131364
  0
VERTEX
  8
0
 10
963.996494
 20
2026.305355
 42
0.159519
  0
VERTEX
  8
0
 10
963.546650
 20
2026.571243
 42
0.043837
  0
VERTEX
  8
0
 10
962.720166
 20
2026.679157
 42
0.039616
  0
VERTEX
  8
0
 10
961.708933
 20
2026.641752
 42
0.032447
  0
VERTEX
  8
0
 10
960.644645
 20
2026.446947
 42
0.000000
  0
VERTEX
  8
0
 10
958.000000
 20
2025.783184
 42
0.000000
  0
VERTEX
  8
0
 10
957.982636
 20
2012.141592
 42
-0.032949
  0
VERTEX
  8
0
 10
956.749307
 20
1993.801372
 42
-0.069336
  0
VERTEX
  8
0
 10
952.929453
 20
1980.077753
 42
-0.088239
  0
VERTEX
  8
0
 10
946.294283
 20
1970.080437
 42
-0.089253
  0
VERTEX
  8
0
 10
936.642387
 20
1963.031304
 42
-0.024519
  0
VERTEX
  8
0
 10
931.154821
 20
1960.687000
 42
-0.019882
  0
VERTEX
  8
0
 10
925.068957
 20
1958.704266
 42
-0.011966
  0
VERTEX
  8
0
 10
919.453129
 20
1957.262766
 42
-0.277366
  0
VERTEX
  8
0
 10
917.945302
 20
1957.752087
 42
-0.131566
  0
VERTEX
  8
0
 10
916.777845
 20
1960.142965
 42
-0.000203
  0
VERTEX
  8
0
 10
907.536467
 20
2007.629879
 42
-0.000119
  0
VERTEX
  8
0
 10
898.223800
 20
2055.647837
 42
-0.263492
  0
VERTEX
  8
0
 10
898.674500
 20
2056.990102
 42
-0.133386
  0
VERTEX
  8
0
 10
900.149643
 20
2057.732699
 42
-0.000623
  0
VERTEX
  8
0
 10
917.106031
 20
2061.168446
 42
-0.003268
  0
VERTEX
  8
0
 10
932.888861
 20
2064.238749
 42
-0.009146
  0
VERTEX
  8
0
 10
944.000000
 20
2066.115282
 42
-0.055286
  0
VERTEX
  8
0
 10
959.785343
 20
2066.724244
 42
-0.062466
  0
VERTEX
  8
0
 10
974.652611
 20
2063.762001
 42
-0.066546
  0
VERTEX
  8
0
 10
987.524527
 20
2057.475185
 42
-0.078980
  0
VERTEX
  8
0
 10
997.460832
 20
2048.313442
 42
-0.023614
  0
VERTEX
  8
0
 10
999.610555
 20
2045.309122
 42
-0.008744
  0
VERTEX
  8
0
 10
1002.358704
 20
2040.890261
 42
-0.008643
  0
VERTEX
  8
0
 10
1005.194067
 20
2035.956572
 42
-0.010307
  0
VERTEX
  8
0
 10
1007.689378
 20
2031.206594
 42
0.003208
  0
VERTEX
  8
0
 10
1011.475164
 20
2023.744685
 42
0.052850
  0
VERTEX
  8
0
 10
1013.007950
 20
2021.412929
 42
0.172869
  0
VERTEX
  8
0
 10
1014.423877
 20
2020.561653
 42
0.102792
  0
VERTEX
  8
0
 10
1016.414130
 20
2020.573409
 42
0.002885
  0
VERTEX
  8
0
 10
1017.608125
 20
2020.836078
 42
0.004419
  0
VERTEX
  8
0
 10
1018.639475
 20
2021.078814
 42
0.001620
  0
VERTEX
  8
0
 10
1019.523022
 20
2021.298060
 42
0.115220
  0
VERTEX
  8
0
 10
1019.656423
 20
2021.366816
 42
0.270843
  0
VERTEX
  8
0
 10
1019.704351
 20
2021.503842
 42
0.000027
  0
VERTEX
  8
0
 10
1017.650976
 20
2032.034497
 42
0.000761
  0
VERTEX
  8
0
 10
1015.360442
 20
2043.683664
 42
0.000458
  0
VERTEX
  8
0
 10
1012.609712
 20
2057.495301
 42
0.001795
  0
VERTEX
  8
0
 10
1009.018277
 20
2075.113426
 42
0.007571
  0
VERTEX
  8
0
 10
1006.666766
 20
2085.637758
 42
0.004636
  0
VERTEX
  8
0
 10
1004.866184
 20
2092.862803
 42
0.310455
  0
VERTEX
  8
0
 10
1003.953289
 20
2093.655827
 42
0.078354
  0
VERTEX
  8
0
 10
1002.786551
 20
2093.605412
 42
0.000061
  0
VERTEX
  8
0
 10
973.625436
 20
2087.703487
 42
0.000686
  0
VERTEX
  8
0
 10
941.099073
 20
2081.069902
 42
0.000420
  0
SEQEND
  0
POLYLINE
  8
0
 66
1
 70
1
  0
VERTEX
  8
0
 10
1445.989842
 20
2067.473283
 42
0.021451
  0
VERTEX
  8
0
 10
1445.627531
 20
2066.381531
 42
0.029892
  0
VERTEX
  8
0
 10
1445.405188
 20
2065.376689
 42
0.030058
  0
VERTEX
  8
0
 10
1445.325248
 20
2064.562758
 42
0.208756
  0
VERTEX
  8
0
 10
1445.468097
 20
2064.198569
 42
0.085146
  0
VERTEX
  8
0
 10
1445.892283
 20
2063.898601
 42
0.002761
  0
VERTEX
  8
0
 10
1447.788451
 20
2063.005665
 42
0.005233
  0
VERTEX
  8
0
 10
1450.049435
 20
2061.984774
 42
0.003605
  0
VERTEX
  8
0
 10
1452.631268
 20
2060.873525
 42
-0.017010
  0
VERTEX
  8
0
 10
1458.479613
 20
2058.168299
 42
-0.038377
  0
VERTEX
  8
0
 10
1462.654304
 20
2055.643198
 42
-0.047721
  0
VERTEX
  8
0
 10
1465.800341
 20
2052.905701
 42
-0.046057
  0
VERTEX
  8
0
 10
1468.412185
 20
2049.590667
 42
-0.073581
  0
VERTEX
  8
0
 10
1470.284418
 20
2045.490641
 42
-0.068969
  0
VERTEX
  8
0
 10
1470.944417
 20
2040.930857
 42
-0.051470
  0
VERTEX
  8
0
 10
1470.396616
 20
2035.290810
 42
-0.020600
  0
VERTEX
  8
0
 10
1468.543813
 20
2027.747946
 42
-0.010532
  0
VERTEX
  8
0
 10
1461.813834
 20
2006.230251
 42
-0.000488
  0
VERTEX
  8
0
 10
1437.355110
 20
1933.680808
 42
-0.000223
  0
VERTEX
  8
0
 10
1411.436640
 20
1857.160806
 42
-0.026222
  0
VERTEX
  8
0
 10
1407.561833
 20
1847.444422
 42
-0.029239
  0
VERTEX
  8
0
 10
1404.847049
 20
1842.359107
 42
-0.062365
  0
VERTEX
  8
0
 10
1402.073143
 20
1838.882094
 42
-0.072806
  0
VERTEX
  8
0
 10
1398.831184
 20
1836.530807
 42
-0.054829
  0
VERTEX
  8
0
 10
1394.724868
 20
1834.925915
 42
-0.067752
  0
VERTEX
  8
0
 10
1390.808941
 20
1834.422974
 42
-0.029122
  0
VERTEX
  8
0
 10
1385.541217
 20
1834.770039
 42
-0.027301
  0
VERTEX
  8
0
 10
1379.704805
 20
1835.823680
 42
-0.026504
  0
VERTEX
  8
0
 10
1373.958715
 20
1837.514566
 42
0.002050
  0
VERTEX
  8
0
 10
1372.323860
 20
1838.083849
 42
0.003120
  0
VERTEX
  8
0
 10
1370.898681
 20
1838.563654
 42
0.001151
  0
VERTEX
  8
0
 10
1369.669292
 20
1838.965887
 42
0.078637
  0
VERTEX
  8
0
 10
1369.453729
 20
1839.000000
 42
0.353021
  0
VERTEX
  8
0
 10
1369.046883
 20
1838.671855
 42
0.007022
  0
VERTEX
  8
0
 10
1368.483694
 20
1835.883508
 42
0.008068
  0
VERTEX
  8
0
 10
1368.008755
 20
1833.102020
 42
0.238996
  0
VERTEX
  8
0
 10
1368.224722
 20
1832.441945
 42
0.113046
  0
VERTEX
  8
0
 10
1369.117545
 20
1831.881864
 42
0.000019
  0
VERTEX
  8
0
 10
1423.383291
 20
1812.985533
 42
0.000372
  0
VERTEX
  8
0
 10
1471.394142
 20
1796.309348
 42
0.004236
  0
VERTEX
  8
0
 10
1490.405589
 20
1789.901597
 42
0.014422
  0
VERTEX
  8
0
 10
1503.726542
 20
1785.958712
 42
0.022685
  0
VERTEX
  8
0
 10
1515.385384
 20
1783.430155
 42
0.024037
  0
VERTEX
  8
0
 10
1526.714577
 20
1782.062435
 42
0.019246
  0
VERTEX
  8
0
 10
1539.000000
 20
1781.649587
 42
0.006392
  0
VERTEX
  8
0
 10
1546.605217
 20
1781.784052
 42
0.016486
  0
VERTEX
  8
0
 10
1552.086205
 20
1782.132190
 42
0.021285
  0
VERTEX
  8
0
 10
1556.628088
 20
1782.767441
 42
0.020792
  0
VERTEX
  8
0
 10
1561.135651
 20
1783.790120
 42
0.075848
  0
VERTEX
  8
0
 10
1580.879739
 20
1792.514792
 42
0.087203
  0
VERTEX
  8
0
 10
1596.059191
 20
1806.415698
 42
0.089923
  0
VERTEX
  8
0
 10
1605.266527
 20
1824.275116
 42
0.086840
  0
VERTEX
  8
0
 10
1607.769377
 20
1844.454915
 42
0.065712
  0
VERTEX
  8
0
 10
1605.095288
 20
1859.060296
 42
0.069620
  0
VERTEX
  8
0
 10
1598.744437
 20
1872.162863
 42
0.058607
  0
VERTEX
  8
0
 10
1588.011385
 20
1884.715069
 42
0.030619
  0
VERTEX
  8
0
 10
1572.058266
 20
1897.749943
 42
-0.000400
  0
VERTEX
  8
0
 10
1567.961112
 20
1900.703781
 42
-0.000603
  0
VERTEX
  8
0
 10
1564.394703
 20
1903.285870
 42
-0.000232
  0
VERTEX
  8
0
 10
1561.332639
 20
1905.510615
 42
-0.014130
  0
VERTEX
  8
0
 10
1560.796043
 20
1905.924535
 42
-0.688887
  0
VERTEX
  8
0
 10
1560.869355
 20
1906.145050
 42
-0.004646
  0
VERTEX
  8
0
 10
1563.652113
 20
1906.239928
 42
-0.008409
  0
VERTEX
  8
0
 10
1567.177392
 20
1906.268030
 42
-0.004574
  0
VERTEX
  8
0
 10
1571.507371
 20
1906.190112
 42
0.027702
  0
VERTEX
  8
0
 10
1585.582113
 20
1906.587824
 42
0.042085
  0
VERTEX
  8
0
 10
1597.640972
 20
1908.630009
 42
0.048080
  0
VERTEX
  8
0
 10
1607.890925
 20
1912.347917
 42
0.058593
  0
VERTEX
  8
0
 10
1616.527323
 20
1917.775792
 42
0.049650
  0
VERTEX
  8
0
 10
1623.992365
 20
1925.122001
 42
0.057479
  0
VERTEX
  8
0
 10
1629.450661
 20
1933.464563
 42
0.055916
  0
VERTEX
  8
0
 10
1632.972560
 20
1943.028851
 42
0.043267
  0
VERTEX
  8
0
 10
1634.683957
 20
1954.008095
 42
0.064810
  0
VERTEX
  8
0
 10
1633.801600
 20
1968.387149
 42
0.058462
  0
VERTEX
  8
0
 10
1629.286490
 20
1982.603831
 42
0.057346
  0
VERTEX
  8
0
 10
1621.492393
 20
1995.639564
 42
0.057653
  0
VERTEX
  8
0
 10
1610.953453
 20
2006.538183
 42
0.037490
  0
VERTEX
  8
0
 10
1604.949237
 20
2010.752987
 42
0.012921
  0
VERTEX
  8
0
 10
1595.692768
 20
2015.946028
 42
0.012813
  0
VERTEX
  8
0
 10
1585.207405
 20
2021.138330
 42
0.014996
  0
VERTEX
  8
0
 10
1575.000000
 20
2025.504374
 42
0.009078
  0
VERTEX
  8
0
 10
1564.004555
 20
2029.593438
 42
0.000201
  0
VERTEX
  8
0
 10
1510.597161
 20
2048.334333
 42
0.000117
  0
VERTEX
  8
0
 10
1455.406418
 20
2067.661498
 42
0.016407
  0
VERTEX
  8
0
 10
1448.767821
 20
2069.742708
 42
0.111769
  0
VERTEX
  8
0
 10
1447.928127
 20
2069.783358
 42
0.128383
  0
VERTEX
  8
0
 10
1447.200053
 20
2069.449789
 42
0.093006
  0
VERTEX
  8
0
 10
1446.563359
 20
2068.694394
 42
0.037902
  0
SEQEND
  0
POLYLINE
  8
0
 66
1
 70
1
  0
VERTEX
  8
0
 10
1544.842490
 20
2020.798418
 42
-0.035989
  0
VERTEX
  8
0
 10
1556.246164
 20
2014.785225
 42
-0.052496
  0
VERTEX
  8
0
 10
1565.198614
 20
2007.807115
 42
-0.059305
  0
VERTEX
  8
0
 10
1571.682031
 20
1999.876591
 42
-0.068977
  0
VERTEX
  8
0
 10
1575.731815
 20
1991.025970
 42
-0.096350
  0
VERTEX
  8
0
 10
1577.326654
 20
1975.016167
 42
-0.067650
  0
VERTEX
  8
0
 10
1573.223504
 20
1957.325901
 42
-0.068752
  0
VERTEX
  8
0
 10
1564.671371
 20
1941.682326
 42
-0.109125
  0
VERTEX
  8
0
 10
1553.199209
 20
1931.704940
 42
-0.061160
  0
VERTEX
  8
0
 10
1542.986468
 20
1927.670019
 42
-0.060339
  0
VERTEX
  8
0
 10
1532.053564
 20
1926.201025
 42
-0.050857
  0
VERTEX
  8
0
 10
1519.546496
 20
1927.311960
 42
-0.027346
  0
VERTEX
  8
0
 10
1504.507860
 20
1931.070287
 42
0.000000
  0
VERTEX
  8
0
 10
1498.170634
 20
1933.027657
 42
0.000000
  0
VERTEX
  8
0
 10
1513.703735
 20
1979.615145
 42
0.000000
  0
VERTEX
  8
0
 10
1529.236837
 20
2026.202633
 42
0.000000
  0
VERTEX
  8
0
 10
1532.254646
 20
2025.599071
 42
-0.035790
  0
VERTEX
  8
0
 10
1533.975430
 20
2025.124783
 42
-0.005963
  0
VERTEX
  8
0
 10
1537.197171
 20
2023.939910
 42
-0.006512
  0
VERTEX
  8
0
 10
1540.957264
 20
2022.449539
 42
-0.005728
  0
SEQEND
  0
POLYLINE
  8
0
 66
1
 70
1
  0
VERTEX
  8
0
 10
1508.631968
 20
1913.588328
 42
-0.033726
  0
VERTEX
  8
0
 10
1523.372438
 20
1906.157505
 42
-0.062623
  0
VERTEX
  8
0
 10
1533.940691
 20
1897.964921
 42
-0.073034
  0
VERTEX
  8
0
 10
1541.086837
 20
1888.376232
 42
-0.065877
  0
VERTEX
  8
0
 10
1545.485260
 20
1876.799581
 42
-0.078070
  0
VERTEX
  8
0
 10
1546.844128
 20
1858.884620
 42
-0.068916
  0
VERTEX
  8
0
 10
1542.795166
 20
1840.583453
 42
-0.070558
  0
VERTEX
  8
0
 10
1534.071623
 20
1824.471054
 42
-0.090217
  0
VERTEX
  8
0
 10
1521.787183
 20
1812.940847
 42
-0.039513
  0
VERTEX
  8
0
 10
1515.440405
 20
1809.516261
 42
-0.046235
  0
VERTEX
  8
0
 10
1508.953811
 20
1807.342034
 42
-0.042894
  0
VERTEX
  8
0
 10
1501.782270
 20
1806.292756
 42
-0.027409
  0
VERTEX
  8
0
 10
1493.353307
 20
1806.252791
 42
-0.021145
  0
VERTEX
  8
0
 10
1485.087599
 20
1807.018285
 42
-0.039815
  0
VERTEX
  8
0
 10
1478.542895
 20
1808.442136
 42
-0.048776
  0
VERTEX
  8
0
 10
1473.293601
 20
1810.607758
 42
-0.061567
  0
VERTEX
  8
0
 10
1468.996194
 20
1813.622404
 42
-0.051083
  0
VERTEX
  8
0
 10
1466.125962
 20
1816.803917
 42
-0.062884
  0
VERTEX
  8
0
 10
1464.188694
 20
1820.297343
 42
-0.065992
  0
VERTEX
  8
0
 10
1463.243145
 20
1824.016988
 42
-0.065385
  0
VERTEX
  8
0
 10
1463.294913
 20
1827.866592
 42
-0.040879
  0
VERTEX
  8
0
 10
1463.897311
 20
1830.489615
 42
-0.000844
  0
VERTEX
  8
0
 10
1467.990820
 20
1843.306507
 42
-0.001971
  0
VERTEX
  8
0
 10
1472.862431
 20
1858.268407
 42
-0.001325
  0
VERTEX
  8
0
 10
1478.540974
 20
1875.325773
 42
0.000000
  0
VERTEX
  8
0
 10
1493.260060
 20
1919.151545
 42
0.000000
  0
VERTEX
  8
0
 10
1495.880030
 20
1918.508838
 42
-0.028269
  0
VERTEX
  8
0
 10
1497.441651
 20
1918.030758
 42
-0.003664
  0
VERTEX
  8
0
 10
1500.706649
 20
1916.798322
 42
-0.004262
  0
VERTEX
  8
0
 10
1504.560624
 20
1915.273342
 42
-0.003548
  0
SEQEND
  0
POLYLINE
  8
0
 66
1
 70
1
  0
VERTEX
  8
0
 10
678.131872
 20
2005.013047
 42
0.000813
  0
VERTEX
  8
0
 10
662.203060
 20
1996.566795
 42
0.001301
  0
VERTEX
  8
0
 10
648.629234
 20
1989.295579
 42
0.000231
  0
VERTEX
  8
0
 10
636.653863
 20
1982.833344
 42
0.072651
  0
VERTEX
  8
0
 10
635.788774
 20
1982.188774
 42
0.149705
  0
VERTEX
  8
0
 10
635.480283
 20
1981.607890
 42
0.093912
  0
VERTEX
  8
0
 10
635.477400
 20
1980.832577
 42
0.066726
  0
VERTEX
  8
0
 10
635.791542
 20
1979.874399
 42
0.032505
  0
VERTEX
  8
0
 10
636.426777
 20
1978.752096
 42
0.000000
  0
VERTEX
  8
0
 10
638.039751
 20
1976.290388
 42
0.000000
  0
VERTEX
  8
0
 10
646.269875
 20
1979.628372
 42
-0.010772
  0
VERTEX
  8
0
 10
649.629702
 20
1980.907480
 42
-0.012048
  0
VERTEX
  8
0
 10
652.919257
 20
1981.990765
 42
-0.011405
  0
VERTEX
  8
0
 10
655.755627
 20
1982.779484
 42
-0.060701
  0
VERTEX
  8
0
 10
657.348871
 20
1982.983178
 42
-0.100798
  0
VERTEX
  8
0
 10
662.156824
 20
1982.033497
 42
-0.097655
  0
VERTEX
  8
0
 10
666.272106
 20
1979.274367
 42
-0.097629
  0
VERTEX
  8
0
 10
669.032694
 20
1975.158806
 42
-0.100684
  0
VERTEX
  8
0
 10
669.985219
 20
1970.348871
 42
-0.074248
  0
VERTEX
  8
0
 10
668.874874
 20
1963.168112
 42
-0.015195
  0
VERTEX
  8
0
 10
664.677173
 20
1950.993447
 42
-0.009034
  0
VERTEX
  8
0
 10
656.971433
 20
1931.727763
 42
-0.001617
  0
VERTEX
  8
0
 10
641.829819
 20
1896.091933
 42
-0.000435
  0
VERTEX
  8
0
 10
632.153294
 20
1873.575357
 42
-0.000709
  0
VERTEX
  8
0
 10
623.902605
 20
1854.497036
 42
-0.000066
  0
VERTEX
  8
0
 10
616.487215
 20
1837.422948
 42
-0.076672
  0
VERTEX
  8
0
 10
616.075403
 20
1836.770316
 42
-0.525740
  0
VERTEX
  8
0
 10
615.639289
 20
1836.819899
 42
-0.000388
  0
VERTEX
  8
0
 10
609.332887
 20
1848.678618
 42
-0.002989
  0
VERTEX
  8
0
 10
602.275944
 20
1862.167701
 42
-0.001772
  0
VERTEX
  8
0
 10
594.013539
 20
1878.333878
 42
-0.000922
  0
VERTEX
  8
0
 10
580.206532
 20
1905.711511
 42
-0.012209
  0
VERTEX
  8
0
 10
575.379501
 20
1915.942563
 42
-0.034430
  0
VERTEX
  8
0
 10
573.143710
 20
1922.113720
 42
-0.057275
  0
VERTEX
  8
0
 10
572.239982
 20
1927.563562
 42
-0.012900
  0
VERTEX
  8
0
 10
572.150597
 20
1931.270608
 42
-0.040036
  0
VERTEX
  8
0
 10
572.354624
 20
1933.761654
 42
-0.054510
  0
VERTEX
  8
0
 10
572.902755
 20
1935.737097
 42
-0.045262
  0
VERTEX
  8
0
 10
573.891222
 20
1937.682848
 42
-0.057720
  0
VERTEX
  8
0
 10
575.925129
 20
1940.219656
 42
-0.016026
  0
VERTEX
  8
0
 10
579.670536
 20
1943.692268
 42
-0.016822
  0
VERTEX
  8
0
 10
583.866183
 20
1947.098553
 42
-0.029135
  0
VERTEX
  8
0
 10
587.596805
 20
1949.596622
 42
0.050488
  0
VERTEX
  8
0
 10
588.550270
 20
1950.295725
 42
0.167618
  0
VERTEX
  8
0
 10
588.921208
 20
1950.966600
 42
0.126811
  0
VERTEX
  8
0
 10
588.851489
 20
1951.843429
 42
0.023981
  0
VERTEX
  8
0
 10
588.251837
 20
1953.346622
 42
0.025932
  0
VERTEX
  8
0
 10
587.723699
 20
1954.362621
 42
0.034575
  0
VERTEX
  8
0
 10
587.136296
 20
1955.220570
 42
0.037002
  0
VERTEX
  8
0
 10
586.572693
 20
1955.833558
 42
0.190603
  0
VERTEX
  8
0
 10
586.151937
 20
1956.000000
 42
0.121217
  0
VERTEX
  8
0
 10
585.102845
 20
1955.741871
 42
0.000020
  0
VERTEX
  8
0
 10
532.279622
 20
1928.069797
 42
0.000041
  0
VERTEX
  8
0
 10
479.934797
 20
1900.640224
 42
0.058180
  0
VERTEX
  8
0
 10
478.115398
 20
1899.398210
 42
0.264632
  0
VERTEX
  8
0
 10
478.020868
 20
1899.129418
 42
0.017523
  0
VERTEX
  8
0
 10
478.201830
 20
1898.297838
 42
0.021649
  0
VERTEX
  8
0
 10
478.510480
 20
1897.273287
 42
0.014202
  0
VERTEX
  8
0
 10
478.949716
 20
1896.121397
 42
0.000000
  0
VERTEX
  8
0
 10
480.168635
 20
1893.178665
 42
0.000000
  0
VERTEX
  8
0
 10
487.834318
 20
1896.820010
 42
-0.014553
  0
VERTEX
  8
0
 10
491.893599
 20
1898.605380
 42
-0.028113
  0
VERTEX
  8
0
 10
495.250759
 20
1899.751709
 42
-0.031458
  0
VERTEX
  8
0
 10
498.452094
 20
1900.433845
 42
-0.024377
  0
VERTEX
  8
0
 10
502.000000
 20
1900.783731
 42
-0.043332
  0
VERTEX
  8
0
 10
507.709114
 20
1900.572087
 42
-0.088388
  0
VERTEX
  8
0
 10
511.980161
 20
1899.250980
 42
-0.086679
  0
VERTEX
  8
0
 10
515.584460
 20
1896.515379
 42
-0.040431
  0
VERTEX
  8
0
 10
519.228457
 20
1891.895265
 42
-0.028316
  0
VERTEX
  8
0
 10
524.368499
 20
1883.130530
 42
-0.000207
  0
VERTEX
  8
0
 10
562.926071
 20
1807.852907
 42
-0.000371
  0
VERTEX
  8
0
 10
600.028423
 20
1735.209527
 42
-0.014813
  0
VERTEX
  8
0
 10
607.696051
 20
1719.000000
 42
-0.063322
  0
VERTEX
  8
0
 10
610.845720
 20
1708.278918
 42
-0.138234
  0
VERTEX
  8
0
 10
609.867287
 20
1699.842290
 42
-0.122545
  0
VERTEX
  8
0
 10
604.471561
 20
1692.504671
 42
-0.044474
  0
VERTEX
  8
0
 10
593.759470
 20
1685.113488
 42
0.000000
  0
VERTEX
  8
0
 10
588.018940
 20
1681.864055
 42
0.000000
  0
VERTEX
  8
0
 10
589.552058
 20
1678.899331
 42
0.023141
  0
VERTEX
  8
0
 10
590.190803
 20
1677.792798
 42
0.037671
  0
VERTEX
  8
0
 10
590.842625
 20
1676.926595
 42
0.044401
  0
VERTEX
  8
0
 10
591.422323
 20
1676.373801
 42
0.309488
  0
VERTEX
  8
0
 10
591.792588
 20
1676.346863
 42
-0.010651
  0
VERTEX
  8
0
 10
592.370350
 20
1676.667275
 42
-0.000010
  0
VERTEX
  8
0
 10
606.098448
 20
1683.902239
 42
-0.000102
  0
VERTEX
  8
0
 10
621.429504
 20
1691.977625
 42
-0.000062
  0
VERTEX
  8
0
 10
639.500000
 20
1701.488382
 42
0.000295
  0
VERTEX
  8
0
 10
679.075317
 20
1722.340889
 42
0.004533
  0
VERTEX
  8
0
 10
692.642467
 20
1729.657727
 42
0.005722
  0
VERTEX
  8
0
 10
700.155065
 20
1733.910451
 42
0.267159
  0
VERTEX
  8
0
 10
701.000000
 20
1735.378916
 42
0.072491
  0
VERTEX
  8
0
 10
700.913582
 20
1735.971838
 42
0.028627
  0
VERTEX
  8
0
 10
700.632812
 20
1736.748969
 42
0.027599
  0
VERTEX
  8
0
 10
700.228429
 20
1737.566975
 42
0.030959
  0
VERTEX
  8
0
 10
699.750000
 20
1738.303300
 42
0.112067
  0
VERTEX
  8
0
 10
698.797796
 20
1739.120912
 42
0.155146
  0
VERTEX
  8
0
 10
697.697451
 20
1739.319385
 42
0.059783
  0
VERTEX
  8
0
 10
695.951343
 20
1738.875749
 42
0.006168
  0
VERTEX
  8
0
 10
692.000000
 20
1737.294945
 42
-0.042016
  0
VERTEX
  8
0
 10
686.118820
 20
1735.418064
 42
-0.044244
  0
VERTEX
  8
0
 10
680.107937
 20
1734.592427
 42
-0.048107
  0
VERTEX
  8
0
 10
674.629412
 20
1734.855978
 42
-0.086804
  0
VERTEX
  8
0
 10
670.372103
 20
1736.254454
 42
-0.110936
  0
VERTEX
  8
0
 10
666.506195
 20
1739.587577
 42
-0.025747
  0
VERTEX
  8
0
 10
661.724436
 20
1746.778605
 42
-0.013859
  0
VERTEX
  8
0
 10
654.780797
 20
1759.261703
 42
-0.002206
  0
VERTEX
  8
0
 10
641.973420
 20
1784.135272
 42
0.000000
  0
VERTEX
  8
0
 10
624.157999
 20
1819.113483
 42
0.000000
  0
VERTEX
  8
0
 10
626.259340
 20
1824.306741
 42
-0.001693
  0
VERTEX
  8
0
 10
627.082730
 20
1826.322014
 42
-0.002533
  0
VERTEX
  8
0
 10
627.816938
 20
1828.076503
 42
-0.001053
  0
VERTEX
  8
0
 10
628.456175
 20
1829.573797
 42
-0.054772
  0
VERTEX
  8
0
 10
628.610983
 20
1829.847310
 42
-0.357350
  0
VERTEX
  8
0
 10
629.276892
 20
1830.024386
 42
-0.000045
  0
VERTEX
  8
0
 10
671.573523
 20
1810.799867
 42
-0.000784
  0
VERTEX
  8
0
 10
709.198033
 20
1793.623532
 42
-0.011165
  0
VERTEX
  8
0
 10
722.483434
 20
1787.170519
 42
-0.026764
  0
VERTEX
  8
0
 10
729.469942
 20
1783.095714
 42
-0.033067
  0
VERTEX
  8
0
 10
735.479213
 20
1778.549871
 42
-0.034170
  0
VERTEX
  8
0
 10
739.837490
 20
1774.220646
 42
-0.182080
  0
VERTEX
  8
0
 10
741.000000
 20
1771.134178
 42
-0.088330
  0
VERTEX
  8
0
 10
740.489194
 20
1768.265270
 42
-0.062359
  0
VERTEX
  8
0
 10
738.982699
 20
1765.349970
 42
-0.051887
  0
VERTEX
  8
0
 10
736.491397
 20
1762.423212
 42
-0.032183
  0
VERTEX
  8
0
 10
733.029598
 20
1759.521727
 42
0.004444
  0
VERTEX
  8
0
 10
731.101644
 20
1758.079933
 42
0.007027
  0
VERTEX
  8
0
 10
729.477444
 20
1756.806172
 42
0.002424
  0
VERTEX
  8
0
 10
728.107279
 20
1755.689171
 42
0.224142
  0
VERTEX
  8
0
 10
728.000000
 20
1755.461884
 42
0.090772
  0
VERTEX
  8
0
 10
728.044694
 20
1755.217723
 42
0.004364
  0
VERTEX
  8
0
 10
728.346073
 20
1754.442594
 42
0.007010
  0
VERTEX
  8
0
 10
728.726788
 20
1753.525731
 42
0.004983
  0
VERTEX
  8
0
 10
729.178120
 20
1752.508415
 42
0.040056
  0
VERTEX
  8
0
 10
729.791155
 20
1751.406242
 42
0.088796
  0
VERTEX
  8
0
 10
730.454603
 20
1750.714873
 42
0.122591
  0
VERTEX
  8
0
 10
731.168040
 20
1750.425845
 42
0.125002
  0
VERTEX
  8
0
 10
731.928120
 20
1750.508074
 42
0.031655
  0
VERTEX
  8
0
 10
734.669185
 20
1751.731395
 42
0.000041
  0
VERTEX
  8
0
 10
786.884950
 20
1779.124122
 42
0.000074
  0
VERTEX
  8
0
 10
838.162660
 20
1806.039740
 42
0.017491
  0
VERTEX
  8
0
 10
842.760277
 20
1808.662968
 42
0.030772
  0
VERTEX
  8
0
 10
844.052872
 20
1809.576033
 42
0.180986
  0
VERTEX
  8
0
 10
844.469813
 20
1810.277661
 42
0.146704
  0
VERTEX
  8
0
 10
844.368989
 20
1811.164142
 42
0.018170
  0
VERTEX
  8
0
 10
843.530337
 20
1812.941335
 42
0.000000
  0
VERTEX
  8
0
 10
842.040120
 20
1815.823097
 42
0.000000
  0
VERTEX
  8
0
 10
837.009333
 20
1813.911548
 42
-0.075017
  0
VERTEX
  8
0
 10
828.433362
 20
1812.053430
 42
-0.045995
  0
VERTEX
  8
0
 10
818.073541
 20
1812.346814
 42
-0.038525
  0
VERTEX
  8
0
 10
806.057805
 20
1814.748129
 42
-0.024134
  0
VERTEX
  8
0
 10
792.452020
 20
1819.295000
 42
-0.012517
  0
VERTEX
  8
0
 10
783.565597
 20
1823.008293
 42
-0.000184
  0
VERTEX
  8
0
 10
731.726864
 20
1846.233238
 42
-0.000527
  0
VERTEX
  8
0
 10
683.159790
 20
1868.075384
 42
-0.002354
  0
VERTEX
  8
0
 10
654.750000
 20
1881.049487
 42
-0.022782
  0
VERTEX
  8
0
 10
653.696831
 20
1881.595982
 42
-0.031224
  0
VERTEX
  8
0
 10
652.807812
 20
1882.186913
 42
-0.032076
  0
VERTEX
  8
0
 10
652.164443
 20
1882.743493
 42
-0.201011
  0
VERTEX
  8
0
 10
652.000000
 20
1883.136004
 42
-0.103638
  0
VERTEX
  8
0
 10
652.446983
 20
1885.269317
 42
-0.000081
  0
VERTEX
  8
0
 10
674.769713
 20
1936.178125
 42
-0.000569
  0
VERTEX
  8
0
 10
695.171903
 20
1982.543149
 42
-0.012194
  0
VERTEX
  8
0
 10
701.547962
 20
1996.084651
 42
-0.011098
  0
VERTEX
  8
0
 10
705.750558
 20
2004.027860
 42
-0.036259
  0
VERTEX
  8
0
 10
709.013597
 20
2008.993987
 42
-0.045978
  0
VERTEX
  8
0
 10
712.515446
 20
2012.785526
 42
-0.027536
  0
VERTEX
  8
0
 10
717.295064
 20
2016.635997
 42
0.000041
  0
VERTEX
  8
0
 10
719.317517
 20
2018.089548
 42
0.000062
  0
VERTEX
  8
0
 10
721.084027
 20
2019.359701
 42
0.000025
  0
VERTEX
  8
0
 10
722.599025
 20
2020.449410
 42
0.001358
  0
VERTEX
  8
0
 10
722.884602
 20
2020.656021
 42
0.338914
  0
VERTEX
  8
0
 10
723.084227
 20
2021.329314
 42
0.012132
  0
VERTEX
  8
0
 10
721.995636
 20
2023.980939
 42
0.012310
  0
VERTEX
  8
0
 10
720.778556
 20
2026.576695
 42
0.313939
  0
VERTEX
  8
0
 10
720.128680
 20
2026.931175
 42
0.093198
  0
VERTEX
  8
0
 10
719.647396
 20
2026.784982
 42
0.000064
  0
VERTEX
  8
0
 10
707.532787
 20
2020.464335
 42
0.000762
  0
VERTEX
  8
0
 10
694.037863
 20
2013.395131
 42
0.000466
  0
SEQEND
  0
POLYLINE
  8
0
 66
1
 70
1
  0
VERTEX
  8
0
 10
1742.344344
 20
1952.402783
 42
0.031415
  0
VERTEX
  8
0
 10
1741.355530
 20
1950.664634
 42
0.208356
  0
VERTEX
  8
0
 10
1741.313032
 20
1949.690217
 42
0.127045
  0
VERTEX
  8
0
 10
1741.997531
 20
1948.731381
 42
0.009193
  0
VERTEX
  8
0
 10
1744.550412
 20
1946.668269
 42
-0.032217
  0
VERTEX
  8
0
 10
1751.575101
 20
1940.435733
 42
-0.060555
  0
VERTEX
  8
0
 10
1756.218071
 20
1934.449702
 42
-0.078237
  0
VERTEX
  8
0
 10
1758.525060
 20
1928.716872
 42
-0.111113
  0
VERTEX
  8
0
 10
1758.553065
 20
1923.241604
 42
-0.079177
  0
VERTEX
  8
0
 10
1756.309654
 20
1917.529321
 42
-0.008606
  0
VERTEX
  8
0
 10
1748.899353
 20
1905.428218
 42
-0.005864
  0
VERTEX
  8
0
 10
1736.222921
 20
1886.012208
 42
-0.000942
  0
VERTEX
  8
0
 10
1710.981603
 20
1848.477278
 42
0.002986
  0
VERTEX
  8
0
 10
1680.373759
 20
1802.557976
 42
0.022333
  0
VERTEX
  8
0
 10
1666.977336
 20
1780.071781
 42
0.047310
  0
VERTEX
  8
0
 10
1660.334226
 20
1764.275345
 42
0.056697
  0
VERTEX
  8
0
 10
1657.284973
 20
1748.443236
 42
0.053627
  0
VERTEX
  8
0
 10
1657.600451
 20
1737.984352
 42
0.036000
  0
VERTEX
  8
0
 10
1660.087209
 20
1726.275554
 42
0.034735
  0
VERTEX
  8
0
 10
1664.389948
 20
1714.513138
 42
0.038436
  0
VERTEX
  8
0
 10
1670.162040
 20
1703.870587
 42
0.061159
  0
VERTEX
  8
0
 10
1683.511139
 20
1687.891322
 42
0.035714
  0
VERTEX
  8
0
 10
1702.923865
 20
1672.152035
 42
0.035620
  0
VERTEX
  8
0
 10
1724.507512
 20
1659.253282
 42
0.058139
  0
VERTEX
  8
0
 10
1744.506922
 20
1651.923275
 42
0.013964
  0
VERTEX
  8
0
 10
1749.803317
 20
1650.809688
 42
0.026373
  0
VERTEX
  8
0
 10
1754.132185
 20
1650.258814
 42
0.022363
  0
VERTEX
  8
0
 10
1758.938862
 20
1650.118793
 42
0.007388
  0
VERTEX
  8
0
 10
1766.000000
 20
1650.333318
 42
0.029081
  0
VERTEX
  8
0
 10
1781.190237
 20
1651.907973
 42
0.059902
  0
VERTEX
  8
0
 10
1792.653016
 20
1655.217808
 42
0.062207
  0
VERTEX
  8
0
 10
1802.730621
 20
1661.055174
 42
0.033705
  0
VERTEX
  8
0
 10
1813.548222
 20
1670.479088
 42
0.022069
  0
VERTEX
  8
0
 10
1823.362448
 20
1681.170889
 42
0.015924
  0
VERTEX
  8
0
 10
1833.373683
 20
1693.894560
 42
0.008778
  0
VERTEX
  8
0
 10
1847.028419
 20
1713.132869
 42
0.001631
  0
VERTEX
  8
0
 10
1871.379111
 20
1749.000000
 42
-0.001034
  0
VERTEX
  8
0
 10
1883.473121
 20
1766.859620
 42
-0.001420
  0
VERTEX
  8
0
 10
1894.430234
 20
1782.870538
 42
-0.000908
  0
VERTEX
  8
0
 10
1903.702473
 20
1796.285072
 42
-0.016906
  0
VERTEX
  8
0
 10
1906.776643
 20
1800.410343
 42
-0.039102
  0
VERTEX
  8
0
 10
1911.683424
 20
1805.652149
 42
-0.058765
  0
VERTEX
  8
0
 10
1916.765127
 20
1809.301846
 42
-0.064844
  0
VERTEX
  8
0
 10
1922.151641
 20
1811.427954
 42
-0.062886
  0
VERTEX
  8
0
 10
1927.960244
 20
1812.133205
 42
-0.041664
  0
VERTEX
  8
0
 10
1932.588294
 20
1811.724591
 42
-0.038875
  0
VERTEX
  8
0
 10
1937.196775
 20
1810.552498
 42
-0.037862
  0
VERTEX
  8
0
 10
1941.683413
 20
1808.642593
 42
-0.035173
  0
VERTEX
  8
0
 10
1945.948357
 20
1806.036773
 42
0.024016
  0
VERTEX
  8
0
 10
1948.368181
 20
1804.483169
 42
0.145957
  0
VERTEX
  8
0
 10
1949.800546
 20
1804.143462
 42
0.189777
  0
VERTEX
  8
0
 10
1950.980573
 20
1804.687647
 42
0.045924
  0
VERTEX
  8
0
 10
1952.343656
 20
1806.401733
 42
0.000000
  0
VERTEX
  8
0
 10
1953.917331
 20
1808.803465
 42
0.000000
  0
VERTEX
  8
0
 10
1919.802561
 20
1832.651733
 42
0.000230
  0
VERTEX
  8
0
 10
1906.636160
 20
1841.846836
 42
0.000364
  0
VERTEX
  8
0
 10
1895.345953
 20
1849.711730
 42
0.000075
  0
VERTEX
  8
0
 10
1885.400961
 20
1856.626580
 42
0.017093
  0
VERTEX
  8
0
 10
1884.451871
 20
1857.239264
 42
0.177128
  0
VERTEX
  8
0
 10
1883.821659
 20
1857.359446
 42
0.101241
  0
VERTEX
  8
0
 10
1883.088750
 20
1857.080245
 42
0.070296
  0
VERTEX
  8
0
 10
1882.297948
 20
1856.405831
 42
0.036082
  0
VERTEX
  8
0
 10
1881.505746
 20
1855.368425
 42
0.000000
  0
VERTEX
  8
0
 10
1879.795540
 20
1852.758322
 42
0.000000
  0
VERTEX
  8
0
 10
1886.407303
 20
1846.790965
 42
-0.023167
  0
VERTEX
  8
0
 10
1892.002975
 20
1841.249402
 42
-0.054727
  0
VERTEX
  8
0
 10
1895.478093
 20
1836.528830
 42
-0.069227
  0
VERTEX
  8
0
 10
1897.359117
 20
1831.913543
 42
-0.062274
  0
VERTEX
  8
0
 10
1898.000000
 20
1826.787869
 42
-0.076811
  0
VERTEX
  8
0
 10
1896.707119
 20
1818.421511
 42
-0.053763
  0
VERTEX
  8
0
 10
1892.862383
 20
1809.672941
 42
-0.017095
  0
VERTEX
  8
0
 10
1884.031695
 20
1795.451381
 42
-0.001058
  0
VERTEX
  8
0
 10
1856.309206
 20
1754.223477
 42
-0.001132
  0
VERTEX
  8
0
 10
1832.462308
 20
1719.092470
 42
-0.008451
  0
VERTEX
  8
0
 10
1820.824084
 20
1702.634936
 42
-0.017507
  0
VERTEX
  8
0
 10
1812.561263
 20
1692.150232
 42
-0.021094
  0
VERTEX
  8
0
 10
1804.060792
 20
1682.926702
 42
-0.038557
  0
VERTEX
  8
0
 10
1794.693652
 20
1674.925532
 42
-0.052300
  0
VERTEX
  8
0
 10
1785.075491
 20
1669.350243
 42
-0.055193
  0
VERTEX
  8
0
 10
1774.940561
 20
1666.097579
 42
-0.050678
  0
VERTEX
  8
0
 10
1764.039901
 20
1665.014781
 42
-0.080327
  0
VERTEX
  8
0
 10
1747.085528
 20
1667.795605
 42
-0.064154
  0
VERTEX
  8
0
 10
1730.394952
 20
1675.878926
 42
-0.065049
  0
VERTEX
  8
0
 10
1716.524827
 20
1687.778021
 42
-0.088557
  0
VERTEX
  8
0
 10
1707.854519
 20
1701.756976
 42
-0.025614
  0
VERTEX
  8
0
 10
1706.708994
 20
1705.131033
 42
-0.032465
  0
VERTEX
  8
0
 10
1706.019121
 20
1708.349171
 42
-0.025915
  0
VERTEX
  8
0
 10
1705.658685
 20
1712.154026
 42
-0.009776
  0
VERTEX
  8
0
 10
1705.535280
 20
1717.500000
 42
-0.008944
  0
VERTEX
  8
0
 10
1705.624488
 20
1723.711665
 42
-0.043501
  0
VERTEX
  8
0
 10
1706.042855
 20
1727.204938
 42
-0.047714
  0
VERTEX
  8
0
 10
1707.044679
 20
1730.426452
 42
-0.012149
  0
VERTEX
  8
0
 10
1709.283507
 20
1735.424347
 42
-0.006370
  0
VERTEX
  8
0
 10
1710.998464
 20
1738.901601
 42
-0.004365
  0
VERTEX
  8
0
 10
1713.029244
 20
1742.805640
 42
-0.004400
  0
VERTEX
  8
0
 10
1715.051715
 20
1746.532638
 42
-0.008897
  0
VERTEX
  8
0
 10
1716.721942
 20
1749.424347
 42
-0.013053
  0
VERTEX
  8
0
 10
1725.904860
 20
1763.824506
 42
-0.000505
  0
VERTEX
  8
0
 10
1761.264886
 20
1816.092251
 42
-0.000340
  0
VERTEX
  8
0
 10
1797.761991
 20
1869.844681
 42
-0.020917
  0
VERTEX
  8
0
 10
1804.666405
 20
1879.137578
 42
-0.069302
  0
VERTEX
  8
0
 10
1812.162150
 20
1886.142925
 42
-0.148370
  0
VERTEX
  8
0
 10
1819.609717
 20
1888.599556
 42
-0.118835
  0
VERTEX
  8
0
 10
1828.304675
 20
1886.723244
 42
-0.036624
  0
VERTEX
  8
0
 10
1840.007198
 20
1879.986869
 42
0.000000
  0
VERTEX
  8
0
 10
1845.514395
 20
1876.255246
 42
0.000000
  0
VERTEX
  8
0
 10
1847.375946
 20
1878.723160
 42
0.021137
  0
VERTEX
  8
0
 10
1848.330486
 20
1880.106561
 42
0.108427
  0
VERTEX
  8
0
 10
1848.644580
 20
1880.978646
 42
0.166379
  0
VERTEX
  8
0
 10
1848.497106
 20
1881.705987
 42
0.069442
  0
VERTEX
  8
0
 10
1847.868749
 20
1882.501651
 42
0.038180
  0
VERTEX
  8
0
 10
1846.007762
 20
1884.029369
 42
0.000031
  0
VERTEX
  8
0
 10
1797.346555
 20
1918.110641
 42
0.000072
  0
VERTEX
  8
0
 10
1749.804520
 20
1951.393474
 42
0.016515
  0
VERTEX
  8
0
 10
1745.293932
 20
1954.333251
 42
0.187324
  0
VERTEX
  8
0
 10
1744.678116
 20
1954.441639
 42
0.096142
  0
VERTEX
  8
0
 10
1743.941597
 20
1954.140757
 42
0.067188
  0
VERTEX
  8
0
 10
1743.140875
 20
1953.447350
 42
0.035737
  0
SEQEND
  0
POLYLINE
  8
0
 66
1
 70
1
  0
VERTEX
  8
0
 10
311.258752
 20
1761.795509
 42
0.256978
  0
VERTEX
  8
0
 10
310.975636
 20
1760.269587
 42
0.000792
  0
VERTEX
  8
0
 10
317.448163
 20
1740.816514
 42
0.002993
  0
VERTEX
  8
0
 10
326.495801
 20
1714.295875
 42
0.000744
  0
VERTEX
  8
0
 10
341.628547
 20
1671.000000
 42
-0.000434
  0
VERTEX
  8
0
 10
376.148653
 20
1572.431665
 42
-0.007389
  0
VERTEX
  8
0
 10
386.994672
 20
1539.836032
 42
-0.022954
  0
VERTEX
  8
0
 10
391.763967
 20
1521.946947
 42
-0.065098
  0
VERTEX
  8
0
 10
392.853296
 20
1509.106260
 42
-0.015827
  0
VERTEX
  8
0
 10
392.509255
 20
1504.648956
 42
-0.038060
  0
VERTEX
  8
0
 10
391.901388
 20
1501.396592
 42
-0.037838
  0
VERTEX
  8
0
 10
390.805190
 20
1498.262738
 42
-0.015481
  0
VERTEX
  8
0
 10
388.870647
 20
1494.186222
 42
0.000000
  0
VERTEX
  8
0
 10
385.244606
 20
1487.118833
 42
0.000000
  0
VERTEX
  8
0
 10
387.578715
 20
1484.926051
 42
0.000000
  0
VERTEX
  8
0
 10
389.912825
 20
1482.733269
 42
0.000000
  0
VERTEX
  8
0
 10
419.410798
 20
1511.488998
 42
0.000000
  0
VERTEX
  8
0
 10
448.908772
 20
1540.244727
 42
0.000000
  0
VERTEX
  8
0
 10
447.204386
 20
1542.590939
 42
0.017442
  0
VERTEX
  8
0
 10
446.500740
 20
1543.491735
 42
0.023095
  0
VERTEX
  8
0
 10
445.795907
 20
1544.257182
 42
0.021462
  0
VERTEX
  8
0
 10
445.169120
 20
1544.826630
 42
0.163826
  0
VERTEX
  8
0
 10
444.802958
 20
1544.968575
 42
0.159105
  0
VERTEX
  8
0
 10
444.335522
 20
1544.838950
 42
0.003329
  0
VERTEX
  8
0
 10
442.312303
 20
1543.476263
 42
0.007404
  0
VERTEX
  8
0
 10
439.960549
 20
1541.817829
 42
0.004878
  0
VERTEX
  8
0
 10
437.302958
 20
1539.844235
 42
-0.020679
  0
VERTEX
  8
0
 10
429.414315
 20
1534.363914
 42
-0.070525
  0
VERTEX
  8
0
 10
423.731164
 20
1531.791836
 42
-0.101905
  0
VERTEX
  8
0
 10
418.761416
 20
1531.388046
 42
-0.076231
  0
VERTEX
  8
0
 10
413.458630
 20
1532.879664
 42
-0.087393
  0
VERTEX
  8
0
 10
408.198606
 20
1536.483757
 42
-0.062430
  0
VERTEX
  8
0
 10
403.751955
 20
1542.084409
 42
-0.038349
  0
VERTEX
  8
0
 10
399.235925
 20
1550.981791
 42
-0.010265
  0
VERTEX
  8
0
 10
393.456252
 20
1565.773577
 42
0.000000
  0
VERTEX
  8
0
 10
388.214176
 20
1580.047155
 42
0.000000
  0
VERTEX
  8
0
 10
419.133358
 20
1610.273577
 42
-0.001457
  0
VERTEX
  8
0
 10
431.076639
 20
1621.881387
 42
-0.002340
  0
VERTEX
  8
0
 10
441.337176
 20
1631.703300
 42
-0.000419
  0
VERTEX
  8
0
 10
450.440523
 20
1640.321741
 42
-0.134975
  0
VERTEX
  8
0
 10
451.302396
 20
1640.780210
 42
-0.155598
  0
VERTEX
  8
0
 10
452.973175
 20
1640.632508
 42
-0.000795
  0
VERTEX
  8
0
 10
468.512407
 20
1634.090363
 42
-0.003913
  0
VERTEX
  8
0
 10
482.859016
 20
1627.890650
 42
-0.011935
  0
VERTEX
  8
0
 10
492.460331
 20
1623.375273
 42
-0.069842
  0
VERTEX
  8
0
 10
500.672703
 20
1617.721562
 42
-0.193154
  0
VERTEX
  8
0
 10
503.649832
 20
1611.507825
 42
-0.157155
  0
VERTEX
  8
0
 10
501.767425
 20
1604.028608
 42
-0.042947
  0
VERTEX
  8
0
 10
494.366788
 20
1594.174717
 42
0.000000
  0
VERTEX
  8
0
 10
488.706121
 20
1587.849435
 42
0.000000
  0
VERTEX
  8
0
 10
490.801403
 20
1585.754152
 42
0.000000
  0
VERTEX
  8
0
 10
492.896685
 20
1583.658870
 42
0.000000
  0
VERTEX
  8
0
 10
502.198343
 20
1592.299465
 42
0.005092
  0
VERTEX
  8
0
 10
507.680792
 20
1597.497287
 42
0.000744
  0
VERTEX
  8
0
 10
518.686080
 20
1608.177876
 42
0.000841
  0
VERTEX
  8
0
 10
531.655563
 20
1620.844805
 42
0.000721
  0
VERTEX
  8
0
 10
545.264907
 20
1634.220030
 42
0.000000
  0
VERTEX
  8
0
 10
579.029815
 20
1667.500000
 42
0.000000
  0
VERTEX
  8
0
 10
577.120180
 20
1669.730777
 42
0.000000
  0
VERTEX
  8
0
 10
575.210546
 20
1671.961555
 42
0.000000
  0
VERTEX
  8
0
 10
568.355273
 20
1668.369918
 42
-0.012037
  0
VERTEX
  8
0
 10
564.099521
 20
1666.269202
 42
-0.054394
  0
VERTEX
  8
0
 10
561.478764
 20
1665.383882
 42
-0.058302
  0
VERTEX
  8
0
 10
558.813864
 20
1665.114825
 42
-0.015129
  0
VERTEX
  8
0
 10
554.500000
 20
1665.313862
 42
-0.026727
  0
VERTEX
  8
0
 10
550.854048
 20
1665.789794
 42
-0.013205
  0
VERTEX
  8
0
 10
546.284556
 20
1666.762083
 42
-0.012222
  0
VERTEX
  8
0
 10
541.215061
 20
1668.113413
 42
-0.010786
  0
VERTEX
  8
0
 10
536.000000
 20
1669.763941
 42
-0.015469
  0
VERTEX
  8
0
 10
527.945778
 20
1672.786600
 42
-0.000538
  0
VERTEX
  8
0
 10
497.034375
 20
1685.530311
 42
-0.001004
  0
VERTEX
  8
0
 10
460.564002
 20
1700.697575
 42
-0.000701
  0
VERTEX
  8
0
 10
419.500000
 20
1717.939735
 42
0.000011
  0
VERTEX
  8
0
 10
379.163219
 20
1734.942110
 42
0.000018
  0
VERTEX
  8
0
 10
345.023625
 20
1749.329991
 42
0.000001
  0
VERTEX
  8
0
 10
314.294163
 20
1762.279319
 42
0.002786
  0
VERTEX
  8
0
 10
313.410214
 20
1762.646024
 42
0.120653
  0
VERTEX
  8
0
 10
312.914418
 20
1762.719701
 42
0.071080
  0
VERTEX
  8
0
 10
312.328685
 20
1762.579745
 42
0.064366
  0
VERTEX
  8
0
 10
311.745994
 20
1762.257612
 42
0.062758
  0
SEQEND
  0
POLYLINE
  8
0
 66
1
 70
1
  0
VERTEX
  8
0
 10
396.000000
 20
1664.983802
 42
-0.000267
  0
VERTEX
  8
0
 10
411.555942
 20
1658.321853
 42
-0.000439
  0
VERTEX
  8
0
 10
424.716519
 20
1652.663727
 42
-0.000030
  0
VERTEX
  8
0
 10
436.546572
 20
1647.564476
 42
-0.064240
  0
VERTEX
  8
0
 10
436.886023
 20
1647.363142
 42
-0.452675
  0
VERTEX
  8
0
 10
436.915507
 20
1646.846427
 42
-0.000072
  0
VERTEX
  8
0
 10
413.719532
 20
1624.014151
 42
-0.000822
  0
VERTEX
  8
0
 10
392.658686
 20
1603.357558
 42
-0.018743
  0
VERTEX
  8
0
 10
386.385651
 20
1597.668901
 42
0.000000
  0
VERTEX
  8
0
 10
383.271301
 20
1595.050498
 42
0.000000
  0
VERTEX
  8
0
 10
369.994141
 20
1632.775249
 42
0.000254
  0
VERTEX
  8
0
 10
364.736969
 20
1647.688364
 42
0.000335
  0
VERTEX
  8
0
 10
359.924638
 20
1661.288474
 42
0.000242
  0
VERTEX
  8
0
 10
355.876966
 20
1672.685775
 42
0.003228
  0
VERTEX
  8
0
 10
354.359504
 20
1676.866366
 42
-0.004571
  0
VERTEX
  8
0
 10
352.995914
 20
1680.654748
 42
-0.058469
  0
VERTEX
  8
0
 10
352.667782
 20
1682.125196
 42
-0.309064
  0
VERTEX
  8
0
 10
352.970478
 20
1682.683576
 42
-0.185699
  0
VERTEX
  8
0
 10
353.751014
 20
1682.767669
 42
-0.034436
  0
VERTEX
  8
0
 10
355.079512
 20
1682.314500
 42
-0.000209
  0
VERTEX
  8
0
 10
366.883110
 20
1677.351819
 42
-0.000866
  0
VERTEX
  8
0
 10
380.349646
 20
1671.655858
 42
-0.000552
  0
SEQEND
  0
POLYLINE
  8
0
 66
1
 70
1
  0
VERTEX
  8
0
 10
2010.899973
 20
1750.120086
 42
0.000000
  0
VERTEX
  8
0
 10
2008.578377
 20
1748.240172
 42
0.000000
  0
VERTEX
  8
0
 10
2012.659019
 20
1742.835401
 42
-0.039114
  0
VERTEX
  8
0
 10
2019.588576
 20
1731.988792
 42
-0.118268
  0
VERTEX
  8
0
 10
2021.783878
 20
1723.563049
 42
-0.139126
  0
VERTEX
  8
0
 10
2019.766393
 20
1715.887715
 42
-0.063054
  0
VERTEX
  8
0
 10
2013.343967
 20
1707.603226
 42
-0.019361
  0
VERTEX
  8
0
 10
2000.033713
 20
1695.285690
 42
-0.000523
  0
VERTEX
  8
0
 10
1939.524375
 20
1643.599503
 42
-0.000388
  0
VERTEX
  8
0
 10
1877.646730
 20
1590.939127
 42
-0.027323
  0
VERTEX
  8
0
 10
1866.867541
 20
1582.750000
 42
-0.011608
  0
VERTEX
  8
0
 10
1863.012619
 20
1580.269082
 42
-0.039056
  0
VERTEX
  8
0
 10
1860.340757
 20
1578.909999
 42
-0.054472
  0
VERTEX
  8
0
 10
1858.003914
 20
1578.228789
 42
-0.043731
  0
VERTEX
  8
0
 10
1855.393046
 20
1578.000000
 42
-0.056528
  0
VERTEX
  8
0
 10
1850.620317
 20
1578.541315
 42
-0.065327
  0
VERTEX
  8
0
 10
1846.333409
 20
1580.137033
 42
-0.051802
  0
VERTEX
  8
0
 10
1841.881492
 20
1583.119904
 42
-0.021377
  0
VERTEX
  8
0
 10
1836.500000
 20
1588.000033
 42
0.000000
  0
VERTEX
  8
0
 10
1829.500000
 20
1594.915551
 42
0.000000
  0
VERTEX
  8
0
 10
1827.100296
 20
1593.090552
 42
0.022664
  0
VERTEX
  8
0
 10
1825.775304
 20
1591.984652
 42
0.144003
  0
VERTEX
  8
0
 10
1825.326330
 20
1591.242271
 42
0.180838
  0
VERTEX
  8
0
 10
1825.404237
 20
1590.465208
 42
0.040242
  0
VERTEX
  8
0
 10
1826.100296
 20
1589.299191
 42
0.018276
  0
VERTEX
  8
0
 10
1830.752838
 20
1583.244241
 42
0.000167
  0
VERTEX
  8
0
 10
1867.025897
 20
1539.477590
 42
0.000016
  0
VERTEX
  8
0
 10
1905.326712
 20
1493.298695
 42
0.233765
  0
VERTEX
  8
0
 10
1905.947331
 20
1493.022236
 42
0.120805
  0
VERTEX
  8
0
 10
1906.276844
 20
1493.117223
 42
0.010438
  0
VERTEX
  8
0
 10
1907.031886
 20
1493.571848
 42
0.013273
  0
VERTEX
  8
0
 10
1907.917846
 20
1494.164273
 42
0.009913
  0
VERTEX
  8
0
 10
1908.863343
 20
1494.862032
 42
0.000000
  0
VERTEX
  8
0
 10
1911.226686
 20
1496.679593
 42
0.000000
  0
VERTEX
  8
0
 10
1906.596854
 20
1502.767422
 42
-0.048663
  0
VERTEX
  8
0
 10
1900.004002
 20
1513.449957
 42
-0.121575
  0
VERTEX
  8
0
 10
1898.072415
 20
1522.349345
 42
-0.133936
  0
VERTEX
  8
0
 10
1900.568129
 20
1530.576819
 42
-0.064994
  0
VERTEX
  8
0
 10
1907.623220
 20
1539.114352
 42
-0.010730
  0
VERTEX
  8
0
 10
1917.063849
 20
1547.544633
 42
-0.000942
  0
VERTEX
  8
0
 10
1941.464559
 20
1568.330918
 42
-0.000083
  0
VERTEX
  8
0
 10
1968.924966
 20
1591.626676
 42
-0.177676
  0
VERTEX
  8
0
 10
1969.942376
 20
1592.000000
 42
-0.221949
  0
VERTEX
  8
0
 10
1971.275498
 20
1591.377567
 42
-0.006070
  0
VERTEX
  8
0
 10
1975.440821
 20
1586.279256
 42
-0.007303
  0
VERTEX
  8
0
 10
1979.411567
 20
1581.144750
 42
-0.162321
  0
VERTEX
  8
0
 10
1980.000000
 20
1579.379945
 42
-0.061948
  0
VERTEX
  8
0
 10
1979.863572
 20
1578.283018
 42
-0.000097
  0
VERTEX
  8
0
 10
1975.006250
 20
1559.073550
 42
-0.000776
  0
VERTEX
  8
0
 10
1969.517452
 20
1537.525095
 42
-0.000479
  0
VERTEX
  8
0
 10
1963.000000
 20
1512.204121
 42
0.000443
  0
VERTEX
  8
0
 10
1956.482460
 20
1486.890380
 42
0.000719
  0
VERTEX
  8
0
 10
1950.993750
 20
1465.365517
 42
0.000083
  0
VERTEX
  8
0
 10
1946.126627
 20
1446.149588
 42
0.062055
  0
VERTEX
  8
0
 10
1946.000000
 20
1445.133237
 42
0.171505
  0
VERTEX
  8
0
 10
1946.451777
 20
1443.854880
 42
0.000140
  0
VERTEX
  8
0
 10
1967.897422
 20
1417.318025
 42
0.001107
  0
VERTEX
  8
0
 10
1987.258717
 20
1393.482116
 42
0.015774
  0
VERTEX
  8
0
 10
1994.450320
 20
1385.215030
 42
0.091487
  0
VERTEX
  8
0
 10
1995.175181
 20
1384.674385
 42
0.162861
  0
VERTEX
  8
0
 10
1995.905092
 20
1384.574877
 42
0.098534
  0
VERTEX
  8
0
 10
1996.806823
 20
1384.939049
 42
0.021567
  0
VERTEX
  8
0
 10
1998.172130
 20
1385.920757
 42
0.000000
  0
VERTEX
  8
0
 10
2000.702891
 20
1387.911454
 42
0.000000
  0
VERTEX
  8
0
 10
1997.653040
 20
1394.064738
 42
-0.092353
  0
VERTEX
  8
0
 10
1995.095947
 20
1403.093961
 42
-0.063934
  0
VERTEX
  8
0
 10
1995.477903
 20
1413.728370
 42
-0.020550
  0
VERTEX
  8
0
 10
1999.281995
 20
1432.052731
 42
-0.001352
  0
VERTEX
  8
0
 10
2012.565616
 20
1484.405413
 42
-0.000042
  0
VERTEX
  8
0
 10
2016.676084
 20
1500.417960
 42
-0.000061
  0
VERTEX
  8
0
 10
2020.295824
 20
1514.506760
 42
-0.000029
  0
VERTEX
  8
0
 10
2023.381176
 20
1526.506622
 42
-0.001126
  0
VERTEX
  8
0
 10
2024.072739
 20
1529.170791
 42
0.000000
  0
VERTEX
  8
0
 10
2025.034430
 20
1532.841582
 42
0.000000
  0
VERTEX
  8
0
 10
2030.267215
 20
1529.276607
 42
0.033994
  0
VERTEX
  8
0
 10
2039.707146
 20
1523.744474
 42
0.034152
  0
VERTEX
  8
0
 10
2049.795306
 20
1519.552210
 42
0.035513
  0
VERTEX
  8
0
 10
2059.928784
 20
1516.915243
 42
0.045820
  0
VERTEX
  8
0
 10
2069.500000
 20
1516.032145
 42
0.088291
  0
VERTEX
  8
0
 10
2087.673660
 20
1519.258419
 42
0.074717
  0
VERTEX
  8
0
 10
2104.812050
 20
1528.642892
 42
0.073144
  0
VERTEX
  8
0
 10
2118.745656
 20
1542.879714
 42
0.078391
  0
VERTEX
  8
0
 10
2127.594695
 20
1560.208138
 42
0.042982
  0
VERTEX
  8
0
 10
2129.746989
 20
1569.409862
 42
0.032482
  0
VERTEX
  8
0
 10
2130.565469
 20
1579.759791
 42
0.032692
  0
VERTEX
  8
0
 10
2130.037060
 20
1590.033708
 42
0.046079
  0
VERTEX
  8
0
 10
2128.136823
 20
1599.000000
 42
0.037938
  0
VERTEX
  8
0
 10
2123.309037
 20
1611.201362
 42
0.024779
  0
VERTEX
  8
0
 10
2116.019574
 20
1624.476411
 42
0.020305
  0
VERTEX
  8
0
 10
2105.896558
 20
1639.520072
 42
0.011018
  0
VERTEX
  8
0
 10
2092.315925
 20
1657.202121
 42
0.002698
  0
VERTEX
  8
0
 10
2073.215447
 20
1680.707287
 42
0.000951
  0
VERTEX
  8
0
 10
2045.584574
 20
1714.207498
 42
0.000038
  0
VERTEX
  8
0
 10
2014.669049
 20
1751.539439
 42
0.204945
  0
VERTEX
  8
0
 10
2013.860784
 20
1751.954874
 42
0.141821
  0
VERTEX
  8
0
 10
2013.490564
 20
1751.875467
 42
0.015432
  0
VERTEX
  8
0
 10
2012.727369
 20
1751.434519
 42
0.017923
  0
VERTEX
  8
0
 10
2011.835772
 20
1750.836752
 42
0.013551
  0
SEQEND
  0
POLYLINE
  8
0
 66
1
 70
1
  0
VERTEX
  8
0
 10
2070.573726
 20
1662.750000
 42
-0.018809
  0
VERTEX
  8
0
 10
2080.702264
 20
1649.684832
 42
-0.040068
  0
VERTEX
  8
0
 10
2087.288850
 20
1638.740190
 42
-0.050981
  0
VERTEX
  8
0
 10
2091.020388
 20
1628.819956
 42
-0.062250
  0
VERTEX
  8
0
 10
2092.339895
 20
1619.000000
 42
-0.017197
  0
VERTEX
  8
0
 10
2092.252131
 20
1615.512436
 42
-0.018313
  0
VERTEX
  8
0
 10
2091.924093
 20
1612.112023
 42
-0.019444
  0
VERTEX
  8
0
 10
2091.381267
 20
1608.981282
 42
-0.029321
  0
VERTEX
  8
0
 10
2090.645170
 20
1606.313142
 42
-0.071369
  0
VERTEX
  8
0
 10
2084.693566
 20
1594.605563
 42
-0.042795
  0
VERTEX
  8
0
 10
2074.645377
 20
1582.635775
 42
-0.041894
  0
VERTEX
  8
0
 10
2062.329351
 20
1572.195123
 42
-0.055605
  0
VERTEX
  8
0
 10
2049.508366
 20
1565.051511
 42
-0.022959
  0
VERTEX
  8
0
 10
2045.922381
 20
1563.737100
 42
-0.037130
  0
VERTEX
  8
0
 10
2042.760872
 20
1562.992857
 42
-0.029511
  0
VERTEX
  8
0
 10
2039.048766
 20
1562.628026
 42
-0.009357
  0
VERTEX
  8
0
 10
2033.484622
 20
1562.515353
 42
-0.008372
  0
VERTEX
  8
0
 10
2027.436635
 20
1562.607359
 42
-0.039982
  0
VERTEX
  8
0
 10
2024.006989
 20
1562.992670
 42
-0.049704
  0
VERTEX
  8
0
 10
2021.034985
 20
1563.883205
 42
-0.017594
  0
VERTEX
  8
0
 10
2016.984622
 20
1565.719449
 42
-0.040546
  0
VERTEX
  8
0
 10
2010.764879
 20
1569.463584
 42
-0.026002
  0
VERTEX
  8
0
 10
2004.181468
 20
1574.732148
 42
-0.021512
  0
VERTEX
  8
0
 10
1996.968938
 20
1581.724801
 42
-0.012122
  0
VERTEX
  8
0
 10
1988.805470
 20
1590.780731
 42
0.000000
  0
VERTEX
  8
0
 10
1979.938421
 20
1601.109993
 42
0.000000
  0
VERTEX
  8
0
 10
2015.219210
 20
1631.209947
 42
0.000277
  0
VERTEX
  8
0
 10
2029.169454
 20
1643.124993
 42
0.000363
  0
VERTEX
  8
0
 10
2041.898768
 20
1654.025400
 42
0.000264
  0
VERTEX
  8
0
 10
2052.558468
 20
1663.176741
 42
0.003437
  0
VERTEX
  8
0
 10
2056.500000
 20
1666.611553
 42
-0.000892
  0
VERTEX
  8
0
 10
2058.812135
 20
1668.647238
 42
-0.001447
  0
VERTEX
  8
0
 10
2060.785793
 20
1670.368593
 42
-0.000188
  0
VERTEX
  8
0
 10
2062.547184
 20
1671.894707
 42
-0.114367
  0
VERTEX
  8
0
 10
2062.664400
 20
1671.956603
 42
-0.287132
  0
VERTEX
  8
0
 10
2062.775683
 20
1671.922041
 42
-0.000174
  0
VERTEX
  8
0
 10
2065.055580
 20
1669.270065
 42
-0.001975
  0
VERTEX
  8
0
 10
2067.592281
 20
1666.293590
 42
-0.001195
  0
SEQEND
  0
POLYLINE
  8
0
 66
1
 70
1
  0
VERTEX
  8
0
 10
672.000000
 20
1330.500000
 42
0.000000
  0
VERTEX
  8
0
 10
672.000000
 20
1028.000000
 42
0.000000
  0
VERTEX
  8
0
 10
684.000000
 20
1028.000000
 42
0.000000
  0
VERTEX
  8
0
 10
696.000000
 20
1028.000000
 42
0.000000
  0
VERTEX
  8
0
 10
696.000000
 20
1141.500000
 42
0.000000
  0
VERTEX
  8
0
 10
696.000000
 20
1255.000000
 42
0.000000
  0
VERTEX
  8
0
 10
769.000000
 20
1255.000000
 42
0.000000
  0
VERTEX
  8
0
 10
842.000000
 20
1255.000000
 42
0.000000
  0
VERTEX
  8
0
 10
842.000000
 20
1203.500000
 42
0.000000
  0
VERTEX
  8
0
 10
842.000000
 20
1152.000000
 42
0.000000
  0
VERTEX
  8
0
 10
853.500000
 20
1152.000000
 42
0.000000
  0
VERTEX
  8
0
 10
865.000000
 20
1152.000000
 42
0.000000
  0
VERTEX
  8
0
 10
865.000000
 20
1203.500000
 42
0.000000
  0
VERTEX
  8
0
 10
865.000000
 20
1255.000000
 42
0.000000
  0
VERTEX
  8
0
 10
1170.000000
 20
1255.000000
 42
0.000000
  0
VERTEX
  8
0
 10
1475.000000
 20
1255.000000
 42
0.000000
  0
VERTEX
  8
0
 10
1475.000000
 20
1198.000000
 42
0.000000
  0
VERTEX
  8
0
 10
1475.000000
 20
1141.000000
 42
0.000000
  0
VERTEX
  8
0
 10
1486.500000
 20
1141.000000
 42
0.000000
  0
VERTEX
  8
0
 10
1498.000000
 20
1141.000000
 42
0.000000
  0
VERTEX
  8
0
 10
1498.000000
 20
1198.000000
 42
0.000000
  0
VERTEX
  8
0
 10
1498.000000
 20
1255.000000
 42
0.000000
  0
VERTEX
  8
0
 10
1553.000000
 20
1255.000000
 42
0.000000
  0
VERTEX
  8
0
 10
1608.000000
 20
1255.000000
 42
0.000000
  0
VERTEX
  8
0
 10
1608.000000
 20
1133.500000
 42
0.000000
  0
VERTEX
  8
0
 10
1608.000000
 20
1012.000000
 42
0.000000
  0
VERTEX
  8
0
 10
1619.500000
 20
1012.000000
 42
0.000000
  0
VERTEX
  8
0
 10
1631.000000
 20
1012.000000
 42
0.000000
  0
VERTEX
  8
0
 10
1631.000000
 20
1314.500000
 42
0.000000
  0
VERTEX
  8
0
 10
1631.000000
 20
1617.000000
 42
0.000000
  0
VERTEX
  8
0
 10
1619.502890
 20
1617.000000
 42
0.000000
  0
VERTEX
  8
0
 10
1608.005780
 20
1617.000000
 42
0.000000
  0
VERTEX
  8
0
 10
1607.752890
 20
1447.750000
 42
0.000000
  0
VERTEX
  8
0
 10
1607.500000
 20
1278.500000
 42
0.000000
  0
VERTEX
  8
0
 10
1552.750000
 20
1278.241461
 42
0.000000
  0
VERTEX
  8
0
 10
1498.000000
 20
1277.982922
 42
0.000000
  0
VERTEX
  8
0
 10
1498.000000
 20
1413.991461
 42
0.000000
  0
VERTEX
  8
0
 10
1498.000000
 20
1550.000000
 42
0.000000
  0
VERTEX
  8
0
 10
1486.500000
 20
1550.000000
 42
0.000000
  0
VERTEX
  8
0
 10
1475.000000
 20
1550.000000
 42
0.000000
  0
VERTEX
  8
0
 10
1475.000000
 20
1437.500000
 42
0.000000
  0
VERTEX
  8
0
 10
1475.000000
 20
1325.000000
 42
0.000000
  0
VERTEX
  8
0
 10
1170.000000
 20
1325.000000
 42
0.000000
  0
VERTEX
  8
0
 10
865.000000
 20
1325.000000
 42
0.000000
  0
VERTEX
  8
0
 10
865.000000
 20
1443.000000
 42
0.000000
  0
VERTEX
  8
0
 10
865.000000
 20
1561.000000
 42
0.000000
  0
VERTEX
  8
0
 10
853.500000
 20
1561.000000
 42
0.000000
  0
VERTEX
  8
0
 10
842.000000
 20
1561.000000
 42
0.000000
  0
VERTEX
  8
0
 10
842.000000
 20
1419.500000
 42
0.000000
  0
VERTEX
  8
0
 10
842.000000
 20
1278.000000
 42
0.000000
  0
VERTEX
  8
0
 10
769.000000
 20
1278.000000
 42
0.000000
  0
VERTEX
  8
0
 10
696.000000
 20
1278.000000
 42
0.000000
  0
VERTEX
  8
0
 10
696.000000
 20
1455.500000
 42
0.000000
  0
VERTEX
  8
0
 10
696.000000
 20
1633.000000
 42
0.000000
  0
VERTEX
  8
0
 10
684.000000
 20
1633.000000
 42
0.000000
  0
VERTEX
  8
0
 10
672.000000
 20
1633.000000
 42
0.000000
  0
SEQEND
  0
POLYLINE
  8
0
 66
1
 70
1
  0
VERTEX
  8
0
 10
1475.000000
 20
1289.998379
 42
0.000000
  0
VERTEX
  8
0
 10
1475.000000
 20
1277.996759
 42
0.000000
  0
VERTEX
  8
0
 10
1170.250000
 20
1278.248379
 42
0.000000
  0
VERTEX
  8
0
 10
865.500000
 20
1278.500000
 42
0.000000
  0
VERTEX
  8
0
 10
865.213003
 20
1288.932396
 42
-0.004816
  0
VERTEX
  8
0
 10
865.139858
 20
1293.024724
 42
-0.006711
  0
VERTEX
  8
0
 10
865.158835
 20
1296.687322
 42
-0.004291
  0
VERTEX
  8
0
 10
865.242200
 20
1299.753154
 42
-0.082849
  0
VERTEX
  8
0
 10
865.431618
 20
1300.682396
 42
-0.309241
  0
VERTEX
  8
0
 10
866.598721
 20
1301.488698
 42
-0.000105
  0
VERTEX
  8
0
 10
923.967948
 20
1301.748503
 42
-0.000933
  0
VERTEX
  8
0
 10
1006.968673
 20
1301.952086
 42
-0.000147
  0
VERTEX
  8
0
 10
1170.468615
 20
1302.000000
 42
0.000000
  0
VERTEX
  8
0
 10
1475.000000
 20
1302.000000
 42
0.000000
  0
SEQEND
  0
POLYLINE
  8
0
 66
1
 70
1
  0
VERTEX
  8
0
 10
206.068686
 20
1600.911627
 42
0.060445
  0
VERTEX
  8
0
 10
191.224384
 20
1596.083783
 42
0.050438
  0
VERTEX
  8
0
 10
176.959225
 20
1587.610674
 42
0.044293
  0
VERTEX
  8
0
 10
163.082493
 20
1575.309227
 42
0.029392
  0
VERTEX
  8
0
 10
149.395389
 20
1559.000000
 42
0.014855
  0
VERTEX
  8
0
 10
140.379439
 20
1546.092707
 42
0.000717
  0
VERTEX
  8
0
 10
111.710732
 20
1502.199709
 42
0.000050
  0
VERTEX
  8
0
 10
79.986917
 20
1453.465938
 42
0.391317
  0
VERTEX
  8
0
 10
80.131207
 20
1452.620533
 42
0.027256
  0
VERTEX
  8
0
 10
83.420793
 20
1450.363943
 42
0.235676
  0
VERTEX
  8
0
 10
85.140786
 20
1450.219380
 42
0.130542
  0
VERTEX
  8
0
 10
86.852620
 20
1451.490379
 42
0.006690
  0
VERTEX
  8
0
 10
91.118680
 20
1456.997011
 42
-0.012748
  0
VERTEX
  8
0
 10
94.272309
 20
1460.967410
 42
-0.029957
  0
VERTEX
  8
0
 10
96.870460
 20
1463.719482
 42
-0.037457
  0
VERTEX
  8
0
 10
99.380707
 20
1465.746865
 42
-0.035565
  0
VERTEX
  8
0
 10
102.207803
 20
1467.416262
 42
-0.035392
  0
VERTEX
  8
0
 10
106.705548
 20
1469.273235
 42
-0.081798
  0
VERTEX
  8
0
 10
110.304673
 20
1469.845065
 42
-0.078329
  0
VERTEX
  8
0
 10
113.993128
 20
1469.242222
 42
-0.030424
  0
VERTEX
  8
0
 10
118.811925
 20
1467.322136
 42
-0.036359
  0
VERTEX
  8
0
 10
125.853183
 20
1463.358635
 42
-0.000193
  0
VERTEX
  8
0
 10
191.428177
 20
1419.853674
 42
-0.000670
  0
VERTEX
  8
0
 10
251.710449
 20
1379.709946
 42
-0.008120
  0
VERTEX
  8
0
 10
274.592378
 20
1363.884599
 42
-0.016123
  0
VERTEX
  8
0
 10
281.504496
 20
1358.591094
 42
-0.038749
  0
VERTEX
  8
0
 10
286.161332
 20
1354.136019
 42
-0.053347
  0
VERTEX
  8
0
 10
289.067293
 20
1350.095378
 42
-0.087604
  0
VERTEX
  8
0
 10
290.476710
 20
1346.137855
 42
-0.049125
  0
VERTEX
  8
0
 10
290.765413
 20
1341.972286
 42
-0.058459
  0
VERTEX
  8
0
 10
290.193459
 20
1338.076169
 42
-0.042273
  0
VERTEX
  8
0
 10
288.545659
 20
1333.520176
 42
-0.013288
  0
VERTEX
  8
0
 10
285.336886
 20
1327.012772
 42
0.000000
  0
VERTEX
  8
0
 10
280.867706
 20
1318.525543
 42
0.000000
  0
VERTEX
  8
0
 10
283.044637
 20
1316.762772
 42
0.013727
  0
VERTEX
  8
0
 10
283.925016
 20
1316.089038
 42
0.017771
  0
VERTEX
  8
0
 10
284.769864
 20
1315.523100
 42
0.015622
  0
VERTEX
  8
0
 10
285.495516
 20
1315.104299
 42
0.130823
  0
VERTEX
  8
0
 10
285.860784
 20
1315.017993
 42
0.246624
  0
VERTEX
  8
0
 10
286.738816
 20
1315.511132
 42
0.000034
  0
VERTEX
  8
0
 10
320.831032
 20
1368.073415
 42
0.000028
  0
VERTEX
  8
0
 10
354.968823
 20
1420.720248
 42
0.393119
  0
VERTEX
  8
0
 10
354.849646
 20
1421.398614
 42
0.018462
  0
VERTEX
  8
0
 10
351.545753
 20
1423.711946
 42
0.204649
  0
VERTEX
  8
0
 10
349.991848
 20
1423.979017
 42
0.165513
  0
VERTEX
  8
0
 10
348.551279
 20
1423.072706
 42
0.011204
  0
VERTEX
  8
0
 10
345.541346
 20
1419.184597
 42
-0.029996
  0
VERTEX
  8
0
 10
340.023481
 20
1412.584671
 42
-0.050209
  0
VERTEX
  8
0
 10
334.562439
 20
1407.851225
 42
-0.061365
  0
VERTEX
  8
0
 10
329.205868
 20
1404.985581
 42
-0.091622
  0
VERTEX
  8
0
 10
324.000000
 20
1404.006366
 42
-0.124785
  0
VERTEX
  8
0
 10
320.013425
 20
1405.003498
 42
-0.010851
  0
VERTEX
  8
0
 10
310.843994
 20
1410.193837
 42
-0.009850
  0
VERTEX
  8
0
 10
297.593970
 20
1418.436124
 42
-0.002685
  0
VERTEX
  8
0
 10
277.000000
 20
1431.974337
 42
-0.000083
  0
VERTEX
  8
0
 10
264.136667
 20
1440.532905
 42
-0.000137
  0
VERTEX
  8
0
 10
253.264016
 20
1447.773902
 42
-0.000007
  0
VERTEX
  8
0
 10
243.460461
 20
1454.306988
 42
-0.026228
  0
VERTEX
  8
0
 10
243.239202
 20
1454.471820
 42
-0.367166
  0
VERTEX
  8
0
 10
243.203348
 20
1454.675434
 42
-0.000425
  0
VERTEX
  8
0
 10
245.543174
 20
1458.665987
 42
-0.003231
  0
VERTEX
  8
0
 10
248.219635
 20
1463.155131
 42
-0.001946
  0
VERTEX
  8
0
 10
251.448737
 20
1468.445896
 42
0.018616
  0
VERTEX
  8
0
 10
265.219065
 20
1492.797833
 42
0.040197
  0
VERTEX
  8
0
 10
273.538630
 20
1512.637498
 42
0.051390
  0
VERTEX
  8
0
 10
277.319317
 20
1530.031480
 42
0.062664
  0
VERTEX
  8
0
 10
277.089140
 20
1546.677628
 42
0.032556
  0
VERTEX
  8
0
 10
274.815036
 20
1557.665731
 42
0.049188
  0
VERTEX
  8
0
 10
271.307650
 20
1566.777052
 42
0.048999
  0
VERTEX
  8
0
 10
266.076731
 20
1575.052700
 42
0.031998
  0
VERTEX
  8
0
 10
258.575974
 20
1583.509284
 42
0.053808
  0
VERTEX
  8
0
 10
246.767973
 20
1592.936306
 42
0.061626
  0
VERTEX
  8
0
 10
233.728320
 20
1599.125060
 42
0.063806
  0
VERTEX
  8
0
 10
219.976943
 20
1601.806757
 42
0.064805
  0
SEQEND
  0
POLYLINE
  8
0
 66
1
 70
1
  0
VERTEX
  8
0
 10
189.566341
 20
1551.942039
 42
-0.066252
  0
VERTEX
  8
0
 10
200.889801
 20
1548.330375
 42
-0.030276
  0
VERTEX
  8
0
 10
214.522290
 20
1540.854630
 42
-0.030295
  0
VERTEX
  8
0
 10
227.273921
 20
1531.699021
 42
-0.060279
  0
VERTEX
  8
0
 10
235.890080
 20
1522.761813
 42
-0.024228
  0
VERTEX
  8
0
 10
240.373134
 20
1516.184297
 42
-0.056877
  0
VERTEX
  8
0
 10
242.881559
 20
1510.802724
 42
-0.056720
  0
VERTEX
  8
0
 10
244.116794
 20
1504.985223
 42
-0.023981
  0
VERTEX
  8
0
 10
244.500000
 20
1497.000000
 42
-0.008061
  0
VERTEX
  8
0
 10
244.394624
 20
1490.464015
 42
-0.042000
  0
VERTEX
  8
0
 10
243.977169
 20
1486.887454
 42
-0.048446
  0
VERTEX
  8
0
 10
242.989284
 20
1483.659173
 42
-0.012930
  0
VERTEX
  8
0
 10
240.796649
 20
1478.744438
 42
-0.008838
  0
VERTEX
  8
0
 10
239.176663
 20
1475.500584
 42
-0.007735
  0
VERTEX
  8
0
 10
237.371524
 20
1472.167144
 42
-0.007798
  0
VERTEX
  8
0
 10
235.647101
 20
1469.206251
 42
-0.022893
  0
VERTEX
  8
0
 10
234.337099
 20
1467.244438
 42
0.000469
  0
VERTEX
  8
0
 10
233.263488
 20
1465.783015
 42
0.000682
  0
VERTEX
  8
0
 10
232.319492
 20
1464.491811
 42
0.000335
  0
VERTEX
  8
0
 10
231.519361
 20
1463.392705
 42
0.011815
  0
VERTEX
  8
0
 10
231.339057
 20
1463.131941
 42
-0.415565
  0
VERTEX
  8
0
 10
230.954230
 20
1463.053227
 42
-0.000014
  0
VERTEX
  8
0
 10
187.768407
 20
1491.717333
 42
-0.000108
  0
VERTEX
  8
0
 10
145.966953
 20
1519.477291
 42
-0.033216
  0
VERTEX
  8
0
 10
142.766463
 20
1521.924689
 42
-0.369318
  0
VERTEX
  8
0
 10
142.562201
 20
1523.333452
 42
-0.008919
  0
VERTEX
  8
0
 10
146.462925
 20
1529.268995
 42
-0.017948
  0
VERTEX
  8
0
 10
150.897113
 20
1535.285450
 42
-0.028600
  0
VERTEX
  8
0
 10
155.149342
 20
1540.054104
 42
-0.026197
  0
VERTEX
  8
0
 10
159.639644
 20
1544.097006
 42
-0.034894
  0
VERTEX
  8
0
 10
164.135421
 20
1547.245042
 42
-0.036455
  0
VERTEX
  8
0
 10
168.857800
 20
1549.633385
 42
-0.033221
  0
VERTEX
  8
0
 10
174.024244
 20
1551.396909
 42
-0.013427
  0
VERTEX
  8
0
 10
178.513831
 20
1552.475001
 42
-0.043466
  0
VERTEX
  8
0
 10
181.553990
 20
1552.847561
 42
-0.041479
  0
VERTEX
  8
0
 10
184.686443
 20
1552.697556
 42
-0.011421
  0
SEQEND
  0
POLYLINE
  8
0
 66
1
 70
1
  0
VERTEX
  8
0
 10
2148.500000
 20
1429.925054
 42
0.056848
  0
VERTEX
  8
0
 10
2118.183756
 20
1422.176960
 42
0.058336
  0
VERTEX
  8
0
 10
2090.674459
 20
1407.843664
 42
0.060013
  0
VERTEX
  8
0
 10
2067.893207
 20
1387.993357
 42
0.067317
  0
VERTEX
  8
0
 10
2051.488068
 20
1364.000000
 42
0.024673
  0
VERTEX
  8
0
 10
2045.251358
 20
1349.881381
 42
0.032309
  0
VERTEX
  8
0
 10
2041.056819
 20
1336.418441
 42
0.031011
  0
VERTEX
  8
0
 10
2038.517931
 20
1322.095095
 42
0.020203
  0
VERTEX
  8
0
 10
2037.292038
 20
1305.338677
 42
0.014931
  0
VERTEX
  8
0
 10
2037.253008
 20
1291.240919
 42
0.029403
  0
VERTEX
  8
0
 10
2038.213834
 20
1280.080316
 42
0.028841
  0
VERTEX
  8
0
 10
2040.492618
 20
1268.971917
 42
0.013804
  0
VERTEX
  8
0
 10
2044.625631
 20
1255.000000
 42
0.022861
  0
VERTEX
  8
0
 10
2049.787836
 20
1241.323947
 42
0.011339
  0
VERTEX
  8
0
 10
2057.507834
 20
1224.460601
 42
0.011338
  0
VERTEX
  8
0
 10
2065.978927
 20
1207.975263
 42
0.023011
  0
VERTEX
  8
0
 10
2073.514059
 20
1195.500000
 42
0.017976
  0
VERTEX
  8
0
 10
2082.877439
 20
1182.530845
 42
0.009846
  0
VERTEX
  8
0
 10
2095.218785
 20
1167.299319
 42
0.003507
  0
VERTEX
  8
0
 10
2107.956963
 20
1152.409201
 42
0.217358
  0
VERTEX
  8
0
 10
2111.045471
 20
1151.000000
 42
0.100758
  0
VERTEX
  8
0
 10
2111.681248
 20
1151.129434
 42
0.000321
  0
VERTEX
  8
0
 10
2119.218319
 20
1154.336682
 42
0.001793
  0
VERTEX
  8
0
 10
2127.737432
 20
1158.004432
 42
0.001120
  0
VERTEX
  8
0
 10
2137.691586
 20
1162.358919
 42
-0.001764
  0
VERTEX
  8
0
 10
2147.959851
 20
1166.835055
 42
-0.002246
  0
VERTEX
  8
0
 10
2157.465381
 20
1170.888297
 42
-0.001752
  0
VERTEX
  8
0
 10
2165.461366
 20
1174.222555
 42
-0.018678
  0
VERTEX
  8
0
 10
2168.765029
 20
1175.444277
 42
-0.081621
  0
VERTEX
  8
0
 10
2175.981822
 20
1176.564365
 42
-0.109793
  0
VERTEX
  8
0
 10
2182.405300
 20
1175.076503
 42
-0.097041
  0
VERTEX
  8
0
 10
2188.152729
 20
1170.799070
 42
-0.052571
  0
VERTEX
  8
0
 10
2193.381804
 20
1163.664404
 42
0.009776
  0
VERTEX
  8
0
 10
2194.937028
 20
1161.110496
 42
0.014802
  0
VERTEX
  8
0
 10
2196.397672
 20
1158.957669
 42
0.009444
  0
VERTEX
  8
0
 10
2197.679484
 20
1157.252583
 42
0.230792
  0
VERTEX
  8
0
 10
2198.197546
 20
1157.000000
 42
0.099831
  0
VERTEX
  8
0
 10
2199.498010
 20
1157.262266
 42
0.037123
  0
VERTEX
  8
0
 10
2201.167106
 20
1158.114767
 42
0.033457
  0
VERTEX
  8
0
 10
2202.629167
 20
1159.143863
 42
0.226402
  0
VERTEX
  8
0
 10
2203.000000
 20
1159.920856
 42
0.100814
  0
VERTEX
  8
0
 10
2202.653438
 20
1161.622205
 42
0.000045
  0
VERTEX
  8
0
 10
2179.877549
 20
1215.195013
 42
0.000051
  0
VERTEX
  8
0
 10
2157.129877
 20
1268.672941
 42
0.089671
  0
VERTEX
  8
0
 10
2156.062608
 20
1270.297874
 42
0.264323
  0
VERTEX
  8
0
 10
2154.683740
 20
1270.715298
 42
0.077318
  0
VERTEX
  8
0
 10
2152.546336
 20
1269.868531
 42
0.079204
  0
VERTEX
  8
0
 10
2150.801503
 20
1268.429619
 42
0.286732
  0
VERTEX
  8
0
 10
2150.575931
 20
1267.071880
 42
-0.040586
  0
VERTEX
  8
0
 10
2154.315084
 20
1255.507280
 42
-0.083157
  0
VERTEX
  8
0
 10
2154.938386
 20
1246.027982
 42
-0.109856
  0
VERTEX
  8
0
 10
2152.487190
 20
1238.609078
 42
-0.116766
  0
VERTEX
  8
0
 10
2147.160031
 20
1233.119915
 42
-0.029722
  0
VERTEX
  8
0
 10
2144.053303
 20
1231.388382
 42
-0.002522
  0
VERTEX
  8
0
 10
2135.790759
 20
1227.458110
 42
-0.003337
  0
VERTEX
  8
0
 10
2125.872182
 20
1222.881838
 42
-0.002576
  0
VERTEX
  8
0
 10
2115.000000
 20
1218.020690
 42
0.000000
  0
VERTEX
  8
0
 10
2087.500000
 20
1205.894576
 42
0.000000
  0
VERTEX
  8
0
 10
2085.172439
 20
1208.697288
 42
-0.020717
  0
VERTEX
  8
0
 10
2076.350161
 20
1220.263555
 42
-0.028660
  0
VERTEX
  8
0
 10
2069.498620
 20
1231.366664
 42
-0.031204
  0
VERTEX
  8
0
 10
2064.417700
 20
1242.352623
 42
-0.034182
  0
VERTEX
  8
0
 10
2060.920519
 20
1253.560055
 42
-0.037918
  0
VERTEX
  8
0
 10
2059.446892
 20
1262.789582
 42
-0.026652
  0
VERTEX
  8
0
 10
2059.139327
 20
1273.306943
 42
-0.026940
  0
VERTEX
  8
0
 10
2059.940865
 20
1283.572209
 42
-0.045262
  0
VERTEX
  8
0
 10
2061.845439
 20
1292.000000
 42
-0.079760
  0
VERTEX
  8
0
 10
2070.529040
 20
1309.014791
 42
-0.051400
  0
VERTEX
  8
0
 10
2085.385753
 20
1325.489902
 42
-0.043788
  0
VERTEX
  8
0
 10
2105.957515
 20
1341.024240
 42
-0.029275
  0
VERTEX
  8
0
 10
2131.854904
 20
1355.196373
 42
-0.030488
  0
VERTEX
  8
0
 10
2158.871388
 20
1366.025734
 42
-0.034760
  0
VERTEX
  8
0
 10
2185.856249
 20
1372.938620
 42
-0.038166
  0
VERTEX
  8
0
 10
2210.460112
 20
1375.531490
 42
-0.073299
  0
VERTEX
  8
0
 10
2230.117776
 20
1373.208365
 42
-0.036121
  0
VERTEX
  8
0
 10
2241.253859
 20
1369.316909
 42
-0.042263
  0
VERTEX
  8
0
 10
2251.113177
 20
1364.021692
 42
-0.043715
  0
VERTEX
  8
0
 10
2259.660803
 20
1357.322972
 42
-0.044006
  0
VERTEX
  8
0
 10
2266.892814
 20
1349.253909
 42
-0.038598
  0
VERTEX
  8
0
 10
2274.545676
 20
1337.198842
 42
-0.043031
  0
VERTEX
  8
0
 10
2279.938366
 20
1324.531093
 42
-0.042670
  0
VERTEX
  8
0
 10
2283.115670
 20
1311.032169
 42
-0.036825
  0
VERTEX
  8
0
 10
2284.167622
 20
1296.500000
 42
-0.048920
  0
VERTEX
  8
0
 10
2282.264886
 20
1277.365861
 42
-0.050698
  0
VERTEX
  8
0
 10
2276.683185
 20
1259.205113
 42
-0.049235
  0
VERTEX
  8
0
 10
2267.378211
 20
1242.086554
 42
-0.041602
  0
VERTEX
  8
0
 10
2254.422440
 20
1226.046737
 42
0.006164
  0
VERTEX
  8
0
 10
2250.198753
 20
1221.515304
 42
0.038161
  0
VERTEX
  8
0
 10
2248.244973
 20
1219.006443
 42
0.081711
  0
VERTEX
  8
0
 10
2247.427750
 20
1217.187725
 42
0.126963
  0
VERTEX
  8
0
 10
2247.416341
 20
1215.477303
 42
0.038538
  0
VERTEX
  8
0
 10
2247.756619
 20
1214.460511
 42
0.040269
  0
VERTEX
  8
0
 10
2248.244957
 20
1213.523586
 42
0.043674
  0
VERTEX
  8
0
 10
2248.799311
 20
1212.791734
 42
0.117748
  0
VERTEX
  8
0
 10
2249.333865
 20
1212.425378
 42
0.195186
  0
VERTEX
  8
0
 10
2250.746669
 20
1212.452390
 42
0.000118
  0
VERTEX
  8
0
 10
2288.852522
 20
1228.782819
 42
0.000243
  0
VERTEX
  8
0
 10
2326.272666
 20
1244.851354
 42
0.085873
  0
VERTEX
  8
0
 10
2328.823736
 20
1246.513310
 42
0.288755
  0
VERTEX
  8
0
 10
2328.888149
 20
1246.755599
 42
0.013248
  0
VERTEX
  8
0
 10
2328.599392
 20
1247.601742
 42
0.018595
  0
VERTEX
  8
0
 10
2328.173040
 20
1248.631481
 42
0.011879
  0
VERTEX
  8
0
 10
2327.605404
 20
1249.796171
 42
0.053300
  0
VERTEX
  8
0
 10
2326.465414
 20
1251.522021
 42
0.130196
  0
VERTEX
  8
0
 10
2325.236878
 20
1252.402081
 42
0.070062
  0
VERTEX
  8
0
 10
2323.279493
 20
1252.845515
 42
0.008109
  0
VERTEX
  8
0
 10
2318.777257
 20
1253.146132
 42
-0.039146
  0
VERTEX
  8
0
 10
2313.116874
 20
1253.878710
 42
-0.073299
  0
VERTEX
  8
0
 10
2308.794190
 20
1255.472773
 42
-0.087563
  0
VERTEX
  8
0
 10
2305.626360
 20
1258.004807
 42
-0.081687
  0
VERTEX
  8
0
 10
2303.424727
 20
1261.525912
 42
-0.063707
  0
VERTEX
  8
0
 10
2302.825422
 20
1263.703741
 42
-0.006787
  0
VERTEX
  8
0
 10
2302.155093
 20
1268.923479
 42
-0.008021
  0
VERTEX
  8
0
 10
2301.522719
 20
1275.348450
 42
-0.005565
  0
VERTEX
  8
0
 10
2301.005505
 20
1282.627256
 42
0.007863
  0
VERTEX
  8
0
 10
2299.874764
 20
1297.568769
 42
0.017874
  0
VERTEX
  8
0
 10
2298.440854
 20
1308.798288
 42
0.021421
  0
VERTEX
  8
0
 10
2296.405418
 20
1318.559178
 42
0.017916
  0
VERTEX
  8
0
 10
2293.437241
 20
1328.718662
 42
0.034624
  0
VERTEX
  8
0
 10
2283.428029
 20
1353.117498
 42
0.039692
  0
VERTEX
  8
0
 10
2270.522100
 20
1374.752664
 42
0.041739
  0
VERTEX
  8
0
 10
2255.034703
 20
1393.116357
 42
0.047630
  0
VERTEX
  8
0
 10
2237.333496
 20
1407.771867
 42
0.028843
  0
VERTEX
  8
0
 10
2226.373025
 20
1414.322359
 42
0.021733
  0
VERTEX
  8
0
 10
2213.656818
 20
1420.271025
 42
0.021550
  0
VERTEX
  8
0
 10
2200.323841
 20
1425.153175
 42
0.026485
  0
VERTEX
  8
0
 10
2187.500000
 20
1428.495435
 42
0.028084
  0
VERTEX
  8
0
 10
2178.974727
 20
1429.747687
 42
0.013263
  0
VERTEX
  8
0
 10
2167.872958
 20
1430.449866
 42
0.013227
  0
VERTEX
  8
0
 10
2156.820685
 20
1430.562461
 42
0.030104
  0
SEQEND
  0
POLYLINE
  8
0
 66
1
 70
1
  0
VERTEX
  8
0
 10
32.908873
 20
1362.829728
 42
0.052275
  0
VERTEX
  8
0
 10
32.395781
 20
1361.570558
 42
0.168785
  0
VERTEX
  8
0
 10
32.442020
 20
1360.680978
 42
0.120872
  0
VERTEX
  8
0
 10
33.057165
 20
1359.831820
 42
0.021303
  0
VERTEX
  8
0
 10
34.623689
 20
1358.614290
 42
-0.022610
  0
VERTEX
  8
0
 10
39.014898
 20
1355.182918
 42
-0.053564
  0
VERTEX
  8
0
 10
41.855508
 20
1352.165661
 42
-0.072676
  0
VERTEX
  8
0
 10
43.451548
 20
1349.265746
 42
-0.089748
  0
VERTEX
  8
0
 10
44.000000
 20
1346.234859
 42
-0.077645
  0
VERTEX
  8
0
 10
43.472461
 20
1342.858217
 42
-0.074109
  0
VERTEX
  8
0
 10
41.937518
 20
1339.743752
 42
-0.034577
  0
VERTEX
  8
0
 10
38.636800
 20
1335.619871
 42
-0.004631
  0
VERTEX
  8
0
 10
31.021140
 20
1327.500000
 42
0.019818
  0
VERTEX
  8
0
 10
20.891986
 20
1316.020685
 42
0.033506
  0
VERTEX
  8
0
 10
13.479046
 20
1305.557139
 42
0.036057
  0
VERTEX
  8
0
 10
7.899716
 20
1294.769393
 42
0.028040
  0
VERTEX
  8
0
 10
3.379318
 20
1282.353218
 42
0.014960
  0
VERTEX
  8
0
 10
1.970016
 20
1277.122398
 42
0.026825
  0
VERTEX
  8
0
 10
1.175487
 20
1272.746673
 42
0.022327
  0
VERTEX
  8
0
 10
0.772509
 20
1267.803191
 42
0.007326
  0
VERTEX
  8
0
 10
0.611523
 20
1260.500000
 42
0.018045
  0
VERTEX
  8
0
 10
0.914188
 20
1249.956158
 42
0.039994
  0
VERTEX
  8
0
 10
2.073310
 20
1242.003191
 42
0.040533
  0
VERTEX
  8
0
 10
4.472277
 20
1234.401604
 42
0.019015
  0
VERTEX
  8
0
 10
8.724382
 20
1225.000000
 42
0.079822
  0
VERTEX
  8
0
 10
21.187698
 20
1207.618572
 42
0.077957
  0
VERTEX
  8
0
 10
38.560853
 20
1194.849784
 42
0.079052
  0
VERTEX
  8
0
 10
58.779980
 20
1188.139558
 42
0.085749
  0
VERTEX
  8
0
 10
79.500000
 20
1188.313984
 42
0.052678
  0
VERTEX
  8
0
 10
96.127115
 20
1193.180934
 42
0.047633
  0
VERTEX
  8
0
 10
111.979921
 20
1201.539351
 42
0.031655
  0
VERTEX
  8
0
 10
130.793623
 20
1215.655291
 42
0.009036
  0
VERTEX
  8
0
 10
158.124089
 20
1239.871497
 42
-0.005081
  0
VERTEX
  8
0
 10
167.834049
 20
1248.613125
 42
-0.013026
  0
VERTEX
  8
0
 10
175.084577
 20
1254.680050
 42
-0.017472
  0
VERTEX
  8
0
 10
181.154854
 20
1259.159792
 42
-0.023048
  0
VERTEX
  8
0
 10
187.000000
 20
1262.781680
 42
-0.111273
  0
VERTEX
  8
0
 10
207.044725
 20
1268.698170
 42
-0.147417
  0
VERTEX
  8
0
 10
225.478719
 20
1264.433550
 42
-0.149297
  0
VERTEX
  8
0
 10
238.328257
 20
1250.759435
 42
-0.114982
  0
VERTEX
  8
0
 10
243.000000
 20
1230.712843
 42
-0.101940
  0
VERTEX
  8
0
 10
238.617871
 20
1209.442433
 42
-0.082833
  0
VERTEX
  8
0
 10
226.000271
 20
1189.828230
 42
-0.077325
  0
VERTEX
  8
0
 10
206.754236
 20
1174.279892
 42
-0.071806
  0
VERTEX
  8
0
 10
183.209262
 20
1164.826169
 42
-0.034767
  0
VERTEX
  8
0
 10
174.894137
 20
1163.407888
 42
-0.015340
  0
VERTEX
  8
0
 10
163.763325
 20
1162.641376
 42
-0.015282
  0
VERTEX
  8
0
 10
152.105310
 20
1162.553771
 42
-0.023032
  0
VERTEX
  8
0
 10
141.971196
 20
1163.255187
 42
0.000000
  0
VERTEX
  8
0
 10
135.442391
 20
1164.010375
 42
0.000000
  0
VERTEX
  8
0
 10
134.288408
 20
1160.953125
 42
0.019630
  0
VERTEX
  8
0
 10
133.690457
 20
1159.158788
 42
0.133961
  0
VERTEX
  8
0
 10
133.675600
 20
1158.234796
 42
0.183853
  0
VERTEX
  8
0
 10
134.135775
 20
1157.581827
 42
0.044033
  0
VERTEX
  8
0
 10
135.317213
 20
1156.928344
 42
0.011811
  0
VERTEX
  8
0
 10
136.999296
 20
1156.229807
 42
0.000120
  0
VERTEX
  8
0
 10
149.001623
 20
1151.578010
 42
0.000390
  0
VERTEX
  8
0
 10
162.836109
 20
1146.232335
 42
0.000253
  0
VERTEX
  8
0
 10
178.837247
 20
1140.073098
 42
0.000000
  0
VERTEX
  8
0
 10
220.174495
 20
1124.185381
 42
0.000000
  0
VERTEX
  8
0
 10
221.489961
 20
1127.313954
 42
0.029621
  0
VERTEX
  8
0
 10
222.158651
 20
1129.211540
 42
0.120102
  0
VERTEX
  8
0
 10
222.207933
 20
1130.427111
 42
0.105617
  0
VERTEX
  8
0
 10
221.694502
 20
1131.611674
 42
0.020295
  0
VERTEX
  8
0
 10
220.251175
 20
1133.471263
 42
-0.038746
  0
VERTEX
  8
0
 10
217.912504
 20
1136.725336
 42
-0.047308
  0
VERTEX
  8
0
 10
216.278604
 20
1140.097768
 42
-0.047889
  0
VERTEX
  8
0
 10
215.321626
 20
1143.681998
 42
-0.041325
  0
VERTEX
  8
0
 10
215.000000
 20
1147.566752
 42
-0.059749
  0
VERTEX
  8
0
 10
215.550429
 20
1152.156514
 42
-0.066689
  0
VERTEX
  8
0
 10
217.168955
 20
1156.306138
 42
-0.042233
  0
VERTEX
  8
0
 10
220.439082
 20
1161.195566
 42
-0.010167
  0
VERTEX
  8
0
 10
226.681523
 20
1168.694131
 42
0.015713
  0
VERTEX
  8
0
 10
237.124049
 20
1181.524662
 42
0.030717
  0
VERTEX
  8
0
 10
244.459096
 20
1192.472415
 42
0.033809
  0
VERTEX
  8
0
 10
249.945154
 20
1203.509134
 42
0.024075
  0
VERTEX
  8
0
 10
254.624088
 20
1216.505498
 42
0.015636
  0
VERTEX
  8
0
 10
256.172510
 20
1222.185041
 42
0.031752
  0
VERTEX
  8
0
 10
256.961787
 20
1226.744448
 42
0.021931
  0
VERTEX
  8
0
 10
257.319917
 20
1232.326157
 42
0.004181
  0
VERTEX
  8
0
 10
257.440563
 20
1242.500000
 42
0.003644
  0
VERTEX
  8
0
 10
257.399288
 20
1253.387888
 42
0.027582
  0
VERTEX
  8
0
 10
257.059310
 20
1258.513770
 42
0.040300
  0
VERTEX
  8
0
 10
256.183851
 20
1262.790023
 42
0.012769
  0
VERTEX
  8
0
 10
254.208114
 20
1269.000000
 42
0.054102
  0
VERTEX
  8
0
 10
245.880447
 20
1286.612880
 42
0.062715
  0
VERTEX
  8
0
 10
234.297473
 20
1301.082966
 42
0.064690
  0
VERTEX
  8
0
 10
219.828276
 20
1311.885133
 42
0.063634
  0
VERTEX
  8
0
 10
203.000000
 20
1318.704357
 42
0.041703
  0
VERTEX
  8
0
 10
196.070496
 20
1319.926317
 42
0.019466
  0
VERTEX
  8
0
 10
186.957846
 20
1320.402995
 42
0.019448
  0
VERTEX
  8
0
 10
177.861524
 20
1320.170483
 42
0.042972
  0
VERTEX
  8
0
 10
171.000000
 20
1319.131103
 42
0.039005
  0
VERTEX
  8
0
 10
164.267275
 20
1316.943215
 42
0.017247
  0
VERTEX
  8
0
 10
155.748339
 20
1313.070627
 42
0.017023
  0
VERTEX
  8
0
 10
147.014571
 20
1308.353703
 42
0.022963
  0
VERTEX
  8
0
 10
139.479893
 20
1303.469238
 42
0.011849
  0
VERTEX
  8
0
 10
131.293919
 20
1297.313535
 42
0.009231
  0
VERTEX
  8
0
 10
122.685646
 20
1290.253181
 42
0.007144
  0
VERTEX
  8
0
 10
112.442654
 20
1281.275220
 42
0.003057
  0
VERTEX
  8
0
 10
99.000000
 20
1268.998884
 42
-0.006842
  0
VERTEX
  8
0
 10
82.988674
 20
1254.597485
 42
-0.025337
  0
VERTEX
  8
0
 10
72.327280
 20
1246.182735
 42
-0.039043
  0
VERTEX
  8
0
 10
63.591426
 20
1240.952657
 42
-0.045624
  0
VERTEX
  8
0
 10
54.582986
 20
1237.456288
 42
-0.043391
  0
VERTEX
  8
0
 10
49.158575
 20
1236.400054
 42
-0.050744
  0
VERTEX
  8
0
 10
43.915600
 20
1236.378118
 42
-0.049864
  0
VERTEX
  8
0
 10
38.700087
 20
1237.418331
 42
-0.039647
  0
VERTEX
  8
0
 10
33.356498
 20
1239.526407
 42
-0.042420
  0
VERTEX
  8
0
 10
29.049953
 20
1242.106728
 42
-0.054937
  0
VERTEX
  8
0
 10
25.634285
 20
1245.190374
 42
-0.047812
  0
VERTEX
  8
0
 10
22.643606
 20
1249.282503
 42
-0.023288
  0
VERTEX
  8
0
 10
19.601278
 20
1255.000000
 42
-0.017474
  0
VERTEX
  8
0
 10
17.929830
 20
1258.872234
 42
-0.042923
  0
VERTEX
  8
0
 10
17.053859
 20
1261.842869
 42
-0.038819
  0
VERTEX
  8
0
 10
16.651136
 20
1265.091004
 42
-0.012141
  0
VERTEX
  8
0
 10
16.545696
 20
1270.000000
 42
-0.046282
  0
VERTEX
  8
0
 10
17.428380
 20
1279.233769
 42
-0.042810
  0
VERTEX
  8
0
 10
19.999056
 20
1288.402036
 42
-0.041360
  0
VERTEX
  8
0
 10
24.201903
 20
1297.292275
 42
-0.037332
  0
VERTEX
  8
0
 10
29.939256
 20
1305.698147
 42
-0.053618
  0
VERTEX
  8
0
 10
37.301533
 20
1313.130296
 42
-0.033256
  0
VERTEX
  8
0
 10
47.333217
 20
1320.239120
 42
-0.032418
  0
VERTEX
  8
0
 10
58.635814
 20
1326.198257
 42
-0.039882
  0
VERTEX
  8
0
 10
69.870433
 20
1330.180748
 42
-0.038192
  0
VERTEX
  8
0
 10
76.243846
 20
1331.370797
 42
-0.016428
  0
VERTEX
  8
0
 10
84.874265
 20
1332.022735
 42
-0.014842
  0
VERTEX
  8
0
 10
94.953778
 20
1332.152387
 42
-0.011527
  0
VERTEX
  8
0
 10
105.914256
 20
1331.715129
 42
0.032232
  0
VERTEX
  8
0
 10
107.826201
 20
1331.718026
 42
0.122131
  0
VERTEX
  8
0
 10
108.956599
 20
1332.078897
 42
0.123956
  0
VERTEX
  8
0
 10
109.778241
 20
1332.922742
 42
0.033652
  0
VERTEX
  8
0
 10
110.608654
 20
1334.606708
 42
0.000000
  0
VERTEX
  8
0
 10
111.888797
 20
1337.713415
 42
0.000000
  0
VERTEX
  8
0
 10
73.694399
 20
1351.357997
 42
0.000558
  0
VERTEX
  8
0
 10
58.999549
 20
1356.589109
 42
0.000908
  0
VERTEX
  8
0
 10
46.509627
 20
1360.994104
 42
0.000098
  0
VERTEX
  8
0
 10
35.344084
 20
1364.906773
 42
0.084868
  0
VERTEX
  8
0
 10
34.785184
 20
1365.001289
 42
0.183492
  0
VERTEX
  8
0
 10
34.437086
 20
1364.868373
 42
0.032639
  0
VERTEX
  8
0
 10
33.939156
 20
1364.362861
 42
0.031509
  0
VERTEX
  8
0
 10
33.405939
 20
1363.660853
 42
0.023804
  0
SEQEND
  0
POLYLINE
  8
0
 66
1
 70
1
  0
VERTEX
  8
0
 10
1281.723839
 20
1173.299159
 42
0.044489
  0
VERTEX
  8
0
 10
1281.448145
 20
1172.695825
 42
0.001158
  0
VERTEX
  8
0
 10
1280.466274
 20
1169.896851
 42
0.002438
  0
VERTEX
  8
0
 10
1279.335910
 20
1166.598833
 42
0.001663
  0
VERTEX
  8
0
 10
1278.081645
 20
1162.839056
 42
-0.018693
  0
VERTEX
  8
0
 10
1275.513439
 20
1155.933342
 42
-0.059676
  0
VERTEX
  8
0
 10
1273.105639
 20
1151.655293
 42
-0.066968
  0
VERTEX
  8
0
 10
1269.914303
 20
1148.334923
 42
-0.028044
  0
VERTEX
  8
0
 10
1264.839002
 20
1144.746749
 42
-0.023699
  0
VERTEX
  8
0
 10
1258.163960
 20
1140.996016
 42
-0.034017
  0
VERTEX
  8
0
 10
1251.908730
 20
1138.376835
 42
-0.029509
  0
VERTEX
  8
0
 10
1244.721077
 20
1136.391242
 42
-0.012919
  0
VERTEX
  8
0
 10
1235.000000
 20
1134.575145
 42
-0.005778
  0
VERTEX
  8
0
 10
1222.867904
 20
1132.775044
 42
-0.010334
  0
VERTEX
  8
0
 10
1212.854869
 20
1131.617659
 42
-0.009008
  0
VERTEX
  8
0
 10
1201.923402
 20
1130.780934
 42
-0.003333
  0
VERTEX
  8
0
 10
1186.500000
 20
1129.982642
 42
0.001677
  0
VERTEX
  8
0
 10
1148.718267
 20
1128.152562
 42
0.013791
  0
VERTEX
  8
0
 10
1131.542929
 20
1126.787081
 42
0.027800
  0
VERTEX
  8
0
 10
1119.638778
 20
1124.835414
 42
0.021808
  0
VERTEX
  8
0
 10
1107.000000
 20
1121.450232
 42
0.021918
  0
VERTEX
  8
0
 10
1094.538571
 20
1116.913632
 42
0.012437
  0
VERTEX
  8
0
 10
1079.863531
 20
1110.398133
 42
0.012407
  0
VERTEX
  8
0
 10
1065.858416
 20
1103.327542
 42
0.027582
  0
VERTEX
  8
0
 10
1055.659247
 20
1097.109565
 42
0.045126
  0
VERTEX
  8
0
 10
1050.631079
 20
1092.935663
 42
0.030998
  0
VERTEX
  8
0
 10
1045.709176
 20
1087.389128
 42
0.017820
  0
VERTEX
  8
0
 10
1039.433085
 20
1078.748457
 42
0.003763
  0
VERTEX
  8
0
 10
1029.138464
 20
1063.206449
 42
0.000000
  0
VERTEX
  8
0
 10
1014.776928
 20
1041.166013
 42
0.000000
  0
VERTEX
  8
0
 10
1004.392030
 20
1037.578689
 42
0.028158
  0
VERTEX
  8
0
 10
965.901135
 20
1021.806044
 42
0.027522
  0
VERTEX
  8
0
 10
929.121009
 20
1001.701636
 42
0.027793
  0
VERTEX
  8
0
 10
895.128507
 20
977.901122
 42
0.030204
  0
VERTEX
  8
0
 10
864.968510
 20
951.083663
 42
0.021798
  0
VERTEX
  8
0
 10
847.375225
 20
931.816476
 42
0.027626
  0
VERTEX
  8
0
 10
832.958657
 20
912.501591
 42
0.027348
  0
VERTEX
  8
0
 10
820.648332
 20
891.552334
 42
0.020673
  0
VERTEX
  8
0
 10
809.396702
 20
867.354694
 42
0.007278
  0
VERTEX
  8
0
 10
805.617363
 20
857.874627
 42
0.000615
  0
VERTEX
  8
0
 10
796.267414
 20
833.300543
 42
0.000903
  0
VERTEX
  8
0
 10
786.700966
 20
807.925867
 42
0.001963
  0
VERTEX
  8
0
 10
779.467120
 20
788.399971
 42
0.016559
  0
VERTEX
  8
0
 10
777.777410
 20
783.262542
 42
0.003476
  0
VERTEX
  8
0
 10
775.183323
 20
774.162256
 42
0.003641
  0
VERTEX
  8
0
 10
772.322856
 20
763.557223
 42
0.003440
  0
VERTEX
  8
0
 10
769.561217
 20
752.709921
 42
-0.007381
  0
VERTEX
  8
0
 10
762.918587
 20
727.452924
 42
-0.023818
  0
VERTEX
  8
0
 10
757.466041
 20
710.975462
 42
-0.034145
  0
VERTEX
  8
0
 10
751.728816
 20
698.643836
 42
-0.036414
  0
VERTEX
  8
0
 10
744.472806
 20
687.484235
 42
-0.068531
  0
VERTEX
  8
0
 10
730.502321
 20
673.535084
 42
-0.057769
  0
VERTEX
  8
0
 10
712.480749
 20
662.918329
 42
-0.054734
  0
VERTEX
  8
0
 10
691.522085
 20
656.259922
 42
-0.049498
  0
VERTEX
  8
0
 10
668.886490
 20
654.004021
 42
-0.033887
  0
VERTEX
  8
0
 10
654.174761
 20
654.996047
 42
-0.085151
  0
VERTEX
  8
0
 10
643.956714
 20
658.212570
 42
-0.060629
  0
VERTEX
  8
0
 10
633.480200
 20
665.318142
 42
-0.011113
  0
VERTEX
  8
0
 10
616.161340
 20
681.109779
 42
0.002167
  0
VERTEX
  8
0
 10
608.231198
 20
688.604791
 42
0.003260
  0
VERTEX
  8
0
 10
601.245788
 20
695.064825
 42
0.001321
  0
VERTEX
  8
0
 10
595.212116
 20
700.543008
 42
0.073348
  0
VERTEX
  8
0
 10
593.945663
 20
701.387499
 42
0.164225
  0
VERTEX
  8
0
 10
591.770667
 20
701.641217
 42
0.105742
  0
VERTEX
  8
0
 10
589.431530
 20
700.596296
 42
0.100777
  0
VERTEX
  8
0
 10
587.638263
 20
698.628804
 42
0.135375
  0
VERTEX
  8
0
 10
587.000000
 20
696.314620
 42
0.029068
  0
VERTEX
  8
0
 10
587.114865
 20
694.340469
 42
0.000421
  0
VERTEX
  8
0
 10
588.486947
 20
682.674879
 42
0.001158
  0
VERTEX
  8
0
 10
590.122022
 20
669.141808
 42
0.000763
  0
VERTEX
  8
0
 10
592.061948
 20
653.587673
 42
0.001955
  0
VERTEX
  8
0
 10
594.598076
 20
634.115818
 42
0.005912
  0
VERTEX
  8
0
 10
596.533777
 20
620.882993
 42
0.007849
  0
VERTEX
  8
0
 10
598.148538
 20
611.629946
 42
0.033778
  0
VERTEX
  8
0
 10
599.563103
 20
606.225505
 42
0.042566
  0
VERTEX
  8
0
 10
606.571318
 20
590.039445
 42
0.033812
  0
VERTEX
  8
0
 10
616.713918
 20
573.907946
 42
0.030713
  0
VERTEX
  8
0
 10
629.996635
 20
557.823798
 42
0.023024
  0
VERTEX
  8
0
 10
646.441391
 20
541.779959
 42
0.033302
  0
VERTEX
  8
0
 10
664.108061
 20
528.056332
 42
0.034395
  0
VERTEX
  8
0
 10
683.256868
 20
516.962472
 42
0.032917
  0
VERTEX
  8
0
 10
704.514172
 20
508.211508
 42
0.025909
  0
VERTEX
  8
0
 10
728.500000
 20
501.498053
 42
0.026434
  0
VERTEX
  8
0
 10
741.124095
 20
499.353816
 42
0.020505
  0
VERTEX
  8
0
 10
755.026659
 20
498.317747
 42
0.016133
  0
VERTEX
  8
0
 10
771.915889
 20
498.298862
 42
0.007322
  0
VERTEX
  8
0
 10
794.000000
 20
499.310769
 42
-0.011031
  0
VERTEX
  8
0
 10
823.373618
 20
500.438391
 42
-0.005648
  0
VERTEX
  8
0
 10
860.249879
 20
500.623204
 42
-0.004181
  0
VERTEX
  8
0
 10
895.428606
 20
500.107910
 42
-0.039079
  0
VERTEX
  8
0
 10
910.500000
 20
498.578567
 42
-0.030833
  0
VERTEX
  8
0
 10
925.850285
 20
494.807573
 42
-0.043629
  0
VERTEX
  8
0
 10
938.860379
 20
489.463621
 42
-0.045852
  0
VERTEX
  8
0
 10
950.253376
 20
482.183764
 42
-0.039648
  0
VERTEX
  8
0
 10
960.741852
 20
472.616807
 42
-0.025302
  0
VERTEX
  8
0
 10
966.052263
 20
466.330798
 42
-0.036017
  0
VERTEX
  8
0
 10
970.050585
 20
460.212987
 42
-0.016699
  0
VERTEX
  8
0
 10
974.857856
 20
450.830040
 42
-0.001673
  0
VERTEX
  8
0
 10
985.511732
 20
428.006585
 42
0.001204
  0
VERTEX
  8
0
 10
990.817949
 20
416.611387
 42
0.001868
  0
VERTEX
  8
0
 10
995.456560
 20
406.807739
 42
0.000542
  0
VERTEX
  8
0
 10
999.530867
 20
398.303019
 42
0.061297
  0
VERTEX
  8
0
 10
1000.202016
 20
397.256585
 42
0.140501
  0
VERTEX
  8
0
 10
1001.520089
 20
396.356973
 42
0.079867
  0
VERTEX
  8
0
 10
1003.440510
 20
396.046410
 42
0.074198
  0
VERTEX
  8
0
 10
1005.512248
 20
396.353577
 42
0.088226
  0
VERTEX
  8
0
 10
1007.271249
 20
397.250000
 42
0.158483
  0
VERTEX
  8
0
 10
1009.060381
 20
399.814573
 42
0.001349
  0
VERTEX
  8
0
 10
1016.095011
 20
423.209718
 42
0.004674
  0
VERTEX
  8
0
 10
1022.329306
 20
444.886661
 42
0.024423
  0
VERTEX
  8
0
 10
1025.061723
 20
457.000000
 42
0.031444
  0
VERTEX
  8
0
 10
1026.116006
 20
466.532398
 42
0.016613
  0
VERTEX
  8
0
 10
1026.283400
 20
478.436155
 42
0.016608
  0
VERTEX
  8
0
 10
1025.657937
 20
490.367263
 42
0.030407
  0
VERTEX
  8
0
 10
1024.237690
 20
500.000000
 42
0.039235
  0
VERTEX
  8
0
 10
1019.181412
 20
517.219330
 42
0.039059
  0
VERTEX
  8
0
 10
1011.491360
 20
533.464545
 42
0.032650
  0
VERTEX
  8
0
 10
1000.116032
 20
550.621335
 42
0.016373
  0
VERTEX
  8
0
 10
983.682158
 20
570.799057
 42
0.007029
  0
VERTEX
  8
0
 10
968.738663
 20
587.487362
 42
0.019365
  0
VERTEX
  8
0
 10
957.600402
 20
598.677455
 42
0.020705
  0
VERTEX
  8
0
 10
946.056486
 20
608.551503
 42
0.009067
  0
VERTEX
  8
0
 10
930.000000
 20
620.708411
 42
-0.022541
  0
VERTEX
  8
0
 10
908.869569
 20
637.621407
 42
-0.055848
  0
VERTEX
  8
0
 10
895.529941
 20
652.255630
 42
-0.064667
  0
VERTEX
  8
0
 10
886.901638
 20
668.109155
 42
-0.039811
  0
VERTEX
  8
0
 10
880.823733
 20
688.500000
 42
-0.042109
  0
VERTEX
  8
0
 10
879.748520
 20
696.992530
 42
-0.013736
  0
VERTEX
  8
0
 10
879.567743
 20
709.634604
 42
-0.013402
  0
VERTEX
  8
0
 10
880.068831
 20
722.163685
 42
-0.048944
  0
VERTEX
  8
0
 10
881.370347
 20
730.000000
 42
-0.046380
  0
VERTEX
  8
0
 10
888.587821
 20
749.464238
 42
-0.070849
  0
VERTEX
  8
0
 10
898.579706
 20
764.411835
 42
-0.078036
  0
VERTEX
  8
0
 10
911.531571
 20
774.978694
 42
-0.071270
  0
VERTEX
  8
0
 10
927.500000
 20
781.473239
 42
-0.030665
  0
VERTEX
  8
0
 10
935.580841
 20
782.965997
 42
-0.012202
  0
VERTEX
  8
0
 10
946.806484
 20
784.057806
 42
-0.010937
  0
VERTEX
  8
0
 10
960.150990
 20
784.734684
 42
-0.007977
  0
VERTEX
  8
0
 10
975.000000
 20
784.925564
 42
-0.009562
  0
VERTEX
  8
0
 10
987.188078
 20
784.654671
 42
-0.010709
  0
VERTEX
  8
0
 10
998.903792
 20
783.918381
 42
-0.005495
  0
VERTEX
  8
0
 10
1009.210290
 20
782.934520
 42
-0.171460
  0
VERTEX
  8
0
 10
1011.486547
 20
781.846786
 42
-0.230497
  0
VERTEX
  8
0
 10
1011.643640
 20
781.391599
 42
-0.008922
  0
VERTEX
  8
0
 10
1011.390870
 20
779.579665
 42
-0.014329
  0
VERTEX
  8
0
 10
1010.981071
 20
777.391166
 42
-0.009443
  0
VERTEX
  8
0
 10
1010.390618
 20
774.899148
 42
0.048439
  0
VERTEX
  8
0
 10
1009.297114
 20
767.888479
 42
0.027174
  0
VERTEX
  8
0
 10
1009.266096
 20
759.257704
 42
0.026933
  0
VERTEX
  8
0
 10
1010.187098
 20
750.484356
 42
0.040291
  0
VERTEX
  8
0
 10
1012.010601
 20
743.000000
 42
0.069698
  0
VERTEX
  8
0
 10
1023.484035
 20
719.766152
 42
0.051029
  0
VERTEX
  8
0
 10
1042.032085
 20
697.737764
 42
0.047444
  0
VERTEX
  8
0
 10
1066.234448
 20
678.398310
 42
0.042566
  0
VERTEX
  8
0
 10
1094.518249
 20
663.156251
 42
0.030285
  0
VERTEX
  8
0
 10
1118.667292
 20
654.378179
 42
0.019480
  0
VERTEX
  8
0
 10
1147.553598
 20
647.028744
 42
0.018905
  0
VERTEX
  8
0
 10
1178.231018
 20
641.687591
 42
0.021621
  0
VERTEX
  8
0
 10
1207.880702
 20
638.971916
 42
-0.000465
  0
VERTEX
  8
0
 10
1239.654492
 20
637.412719
 42
-0.002326
  0
VERTEX
  8
0
 10
1257.462522
 20
636.439149
 42
-0.003724
  0
VERTEX
  8
0
 10
1268.796713
 20
635.681844
 42
-0.017227
  0
VERTEX
  8
0
 10
1275.326660
 20
634.969794
 42
0.013217
  0
VERTEX
  8
0
 10
1278.188866
 20
634.634449
 42
0.019850
  0
VERTEX
  8
0
 10
1280.699743
 20
634.507536
 42
0.020428
  0
VERTEX
  8
0
 10
1282.708163
 20
634.567894
 42
0.110271
  0
VERTEX
  8
0
 10
1283.747877
 20
634.878781
 42
-0.242260
  0
VERTEX
  8
0
 10
1284.920547
 20
634.919658
 42
-0.056264
  0
VERTEX
  8
0
 10
1286.652464
 20
633.850822
 42
-0.030320
  0
VERTEX
  8
0
 10
1289.171724
 20
631.614557
 42
-0.006563
  0
VERTEX
  8
0
 10
1293.230904
 20
627.437516
 42
0.031148
  0
VERTEX
  8
0
 10
1302.389593
 20
618.895774
 42
0.044092
  0
VERTEX
  8
0
 10
1311.584475
 20
612.603135
 42
0.047493
  0
VERTEX
  8
0
 10
1321.168670
 20
608.356257
 42
0.046032
  0
VERTEX
  8
0
 10
1331.482794
 20
605.939111
 42
0.034506
  0
VERTEX
  8
0
 10
1338.074998
 20
605.482091
 42
0.032464
  0
VERTEX
  8
0
 10
1344.805162
 20
605.917962
 42
0.033442
  0
VERTEX
  8
0
 10
1351.198083
 20
607.190184
 42
0.044056
  0
VERTEX
  8
0
 10
1356.776918
 20
609.235171
 42
0.049072
  0
VERTEX
  8
0
 10
1360.977904
 20
611.738945
 42
0.038694
  0
VERTEX
  8
0
 10
1364.985075
 20
615.203377
 42
0.039943
  0
VERTEX
  8
0
 10
1368.218168
 20
619.036256
 42
0.075669
  0
VERTEX
  8
0
 10
1370.042962
 20
622.630176
 42
-0.031487
  0
VERTEX
  8
0
 10
1370.569952
 20
623.942998
 42
-0.049444
  0
VERTEX
  8
0
 10
1371.198128
 20
624.982714
 42
-0.064441
  0
VERTEX
  8
0
 10
1371.827199
 20
625.630166
 42
-0.261616
  0
VERTEX
  8
0
 10
1372.350175
 20
625.714204
 42
0.033472
  0
VERTEX
  8
0
 10
1387.529417
 20
621.258579
 42
0.011432
  0
VERTEX
  8
0
 10
1410.053315
 20
616.792720
 42
0.011468
  0
VERTEX
  8
0
 10
1434.775752
 20
613.057890
 42
0.014603
  0
VERTEX
  8
0
 10
1457.728081
 20
610.806017
 42
0.015129
  0
VERTEX
  8
0
 10
1472.759085
 20
610.229489
 42
0.021825
  0
VERTEX
  8
0
 10
1486.053472
 20
610.702468
 42
0.020468
  0
VERTEX
  8
0
 10
1499.875804
 20
612.371050
 42
0.011282
  0
VERTEX
  8
0
 10
1516.616049
 20
615.480035
 42
-0.002133
  0
VERTEX
  8
0
 10
1526.947863
 20
617.595088
 42
-0.024558
  0
VERTEX
  8
0
 10
1531.045643
 20
618.208333
 42
-0.074458
  0
VERTEX
  8
0
 10
1533.195106
 20
618.102501
 42
-0.227035
  0
VERTEX
  8
0
 10
1534.332838
 20
617.247712
 42
0.078065
  0
VERTEX
  8
0
 10
1536.952317
 20
613.698239
 42
0.013337
  0
VERTEX
  8
0
 10
1543.096232
 20
607.945396
 42
0.014685
  0
VERTEX
  8
0
 10
1549.617172
 20
602.491813
 42
0.054053
  0
VERTEX
  8
0
 10
1554.167490
 20
599.644506
 42
0.052082
  0
VERTEX
  8
0
 10
1562.104872
 20
596.773552
 42
0.091645
  0
VERTEX
  8
0
 10
1569.046415
 20
596.355082
 42
0.099481
  0
VERTEX
  8
0
 10
1575.287991
 20
598.429542
 42
0.070629
  0
VERTEX
  8
0
 10
1581.130538
 20
602.965928
 42
0.049037
  0
VERTEX
  8
0
 10
1584.778091
 20
607.555150
 42
0.044140
  0
VERTEX
  8
0
 10
1587.611279
 20
612.926863
 42
0.038763
  0
VERTEX
  8
0
 10
1589.736757
 20
619.348518
 42
0.024359
  0
VERTEX
  8
0
 10
1591.257508
 20
627.111813
 42
0.000000
  0
VERTEX
  8
0
 10
1592.373915
 20
634.771475
 42
0.000000
  0
VERTEX
  8
0
 10
1600.707248
 20
636.881585
 42
0.023701
  0
VERTEX
  8
0
 10
1608.281953
 20
639.186533
 42
0.032462
  0
VERTEX
  8
0
 10
1614.822788
 20
642.011415
 42
0.036634
  0
VERTEX
  8
0
 10
1620.223158
 20
645.291466
 42
0.054309
  0
VERTEX
  8
0
 10
1624.354613
 20
648.970754
 42
0.053772
  0
VERTEX
  8
0
 10
1628.048205
 20
654.065748
 42
0.088271
  0
VERTEX
  8
0
 10
1629.838493
 20
659.067125
 42
0.083635
  0
VERTEX
  8
0
 10
1629.842794
 20
664.570954
 42
0.043947
  0
VERTEX
  8
0
 10
1628.119059
 20
671.212487
 42
-0.011388
  0
VERTEX
  8
0
 10
1622.522255
 20
688.158293
 42
-0.043939
  0
VERTEX
  8
0
 10
1620.231563
 20
698.990495
 42
-0.060211
  0
VERTEX
  8
0
 10
1620.228771
 20
708.234655
 42
-0.036355
  0
VERTEX
  8
0
 10
1622.328784
 20
719.000000
 42
0.008802
  0
VERTEX
  8
0
 10
1628.042300
 20
741.590092
 42
0.008591
  0
VERTEX
  8
0
 10
1633.006742
 20
764.550234
 42
0.009029
  0
VERTEX
  8
0
 10
1636.813842
 20
785.748239
 42
0.017702
  0
VERTEX
  8
0
 10
1638.938392
 20
802.759821
 42
0.051812
  0
VERTEX
  8
0
 10
1638.644530
 20
822.769119
 42
0.055319
  0
VERTEX
  8
0
 10
1634.205832
 20
841.834334
 42
0.043966
  0
VERTEX
  8
0
 10
1624.671164
 20
862.781924
 42
0.018788
  0
VERTEX
  8
0
 10
1608.503144
 20
889.000000
 42
0.010065
  0
VERTEX
  8
0
 10
1594.237368
 20
909.398592
 42
0.012899
  0
VERTEX
  8
0
 10
1580.258827
 20
927.551100
 42
0.014059
  0
VERTEX
  8
0
 10
1566.562668
 20
943.481359
 42
0.018502
  0
VERTEX
  8
0
 10
1553.149586
 20
957.169501
 42
0.037617
  0
VERTEX
  8
0
 10
1519.507337
 20
984.561458
 42
0.026103
  0
VERTEX
  8
0
 10
1477.842517
 20
1010.448988
 42
0.024250
  0
VERTEX
  8
0
 10
1430.070769
 20
1033.836667
 42
0.021084
  0
VERTEX
  8
0
 10
1378.000000
 20
1053.711182
 42
-0.003096
  0
VERTEX
  8
0
 10
1370.484126
 20
1056.274194
 42
-0.004859
  0
VERTEX
  8
0
 10
1364.059813
 20
1058.579703
 42
-0.001481
  0
VERTEX
  8
0
 10
1358.530209
 20
1060.643645
 42
-0.163523
  0
VERTEX
  8
0
 10
1357.927024
 20
1061.135800
 42
-0.107480
  0
VERTEX
  8
0
 10
1357.663391
 20
1061.862300
 42
-0.002134
  0
VERTEX
  8
0
 10
1357.151398
 20
1065.787715
 42
-0.004982
  0
VERTEX
  8
0
 10
1356.616649
 20
1070.398328
 42
-0.003312
  0
VERTEX
  8
0
 10
1356.091200
 20
1075.695117
 42
0.014111
  0
VERTEX
  8
0
 10
1354.768050
 20
1086.624805
 42
0.032757
  0
VERTEX
  8
0
 10
1353.013846
 20
1094.689311
 42
0.040162
  0
VERTEX
  8
0
 10
1350.493741
 20
1101.385410
 42
0.035133
  0
VERTEX
  8
0
 10
1346.837754
 20
1107.914164
 42
0.027664
  0
VERTEX
  8
0
 10
1341.672788
 20
1114.909110
 42
0.032403
  0
VERTEX
  8
0
 10
1336.014426
 20
1120.908839
 42
0.032891
  0
VERTEX
  8
0
 10
1329.706192
 20
1126.053296
 42
0.030166
  0
VERTEX
  8
0
 10
1322.598513
 20
1130.490251
 42
-0.023228
  0
VERTEX
  8
0
 10
1313.000198
 20
1136.298589
 42
-0.072727
  0
VERTEX
  8
0
 10
1307.423398
 20
1141.348299
 42
-0.061992
  0
VERTEX
  8
0
 10
1303.062476
 20
1148.213224
 42
-0.013718
  0
VERTEX
  8
0
 10
1297.438047
 20
1160.990253
 42
0.000000
  0
VERTEX
  8
0
 10
1292.336182
 20
1173.500000
 42
0.000000
  0
VERTEX
  8
0
 10
1287.257490
 20
1173.799159
 42
0.015137
  0
VERTEX
  8
0
 10
1285.278663
 20
1173.855700
 42
0.022105
  0
VERTEX
  8
0
 10
1283.537020
 20
1173.775687
 42
0.018704
  0
VERTEX
  8
0
 10
1282.152501
 20
1173.598178
 42
0.225810
  0
SEQEND
  0
POLYLINE
  8
0
 66
1
 70
1
  0
VERTEX
  8
0
 10
1300.726394
 20
1132.284926
 42
0.031731
  0
VERTEX
  8
0
 10
1303.308705
 20
1129.952013
 42
0.013571
  0
VERTEX
  8
0
 10
1307.030229
 20
1127.157271
 42
0.012990
  0
VERTEX
  8
0
 10
1311.308940
 20
1124.286229
 42
0.013443
  0
VERTEX
  8
0
 10
1315.683027
 20
1121.675327
 42
-0.012111
  0
VERTEX
  8
0
 10
1320.811268
 20
1118.632760
 42
-0.021646
  0
VERTEX
  8
0
 10
1324.848054
 20
1115.853328
 42
-0.024532
  0
VERTEX
  8
0
 10
1328.265353
 20
1113.002188
 42
-0.022723
  0
VERTEX
  8
0
 10
1331.479589
 20
1109.759426
 42
-0.031529
  0
VERTEX
  8
0
 10
1336.901840
 20
1102.950469
 42
-0.049430
  0
VERTEX
  8
0
 10
1340.557088
 20
1096.426334
 42
-0.047285
  0
VERTEX
  8
0
 10
1342.963336
 20
1089.101793
 42
-0.026084
  0
VERTEX
  8
0
 10
1344.566160
 20
1079.806540
 42
-0.002091
  0
VERTEX
  8
0
 10
1345.085222
 20
1075.289764
 42
-0.002571
  0
VERTEX
  8
0
 10
1345.530387
 20
1071.069409
 42
-0.002131
  0
VERTEX
  8
0
 10
1345.871081
 20
1067.519803
 42
-0.018631
  0
VERTEX
  8
0
 10
1345.956717
 20
1065.940385
 42
0.000000
  0
VERTEX
  8
0
 10
1346.000000
 20
1063.380770
 42
0.000000
  0
VERTEX
  8
0
 10
1332.813607
 20
1066.111761
 42
-0.005757
  0
VERTEX
  8
0
 10
1326.156521
 20
1067.570619
 42
-0.022114
  0
VERTEX
  8
0
 10
1322.073386
 20
1068.707113
 42
-0.035099
  0
VERTEX
  8
0
 10
1319.468720
 20
1069.765181
 42
-0.118465
  0
VERTEX
  8
0
 10
1318.063607
 20
1070.929263
 42
-0.019202
  0
VERTEX
  8
0
 10
1316.956170
 20
1072.531748
 42
-0.000300
  0
VERTEX
  8
0
 10
1310.980236
 20
1081.943621
 42
-0.000797
  0
VERTEX
  8
0
 10
1304.059273
 20
1092.896921
 42
-0.000528
  0
VERTEX
  8
0
 10
1296.145706
 20
1105.494957
 42
0.000000
  0
VERTEX
  8
0
 10
1275.791411
 20
1137.974140
 42
0.000000
  0
VERTEX
  8
0
 10
1280.329571
 20
1143.021666
 42
0.019626
  0
VERTEX
  8
0
 10
1282.154229
 20
1145.218728
 42
0.017272
  0
VERTEX
  8
0
 10
1283.884221
 20
1147.645702
 42
0.017609
  0
VERTEX
  8
0
 10
1285.292138
 20
1149.944531
 42
0.048923
  0
VERTEX
  8
0
 10
1286.057771
 20
1151.675048
 42
0.000000
  0
VERTEX
  8
0
 10
1287.247810
 20
1155.280903
 42
0.000000
  0
VERTEX
  8
0
 10
1291.600300
 20
1146.231341
 42
0.015436
  0
VERTEX
  8
0
 10
1293.745271
 20
1142.102874
 42
0.017352
  0
VERTEX
  8
0
 10
1296.063778
 20
1138.276263
 42
0.018669
  0
VERTEX
  8
0
 10
1298.432629
 20
1134.935379
 42
0.029645
  0
SEQEND
  0
POLYLINE
  8
0
 66
1
 70
1
  0
VERTEX
  8
0
 10
1285.359291
 20
1101.934683
 42
-0.001361
  0
VERTEX
  8
0
 10
1292.563777
 20
1090.385715
 42
-0.002259
  0
VERTEX
  8
0
 10
1298.568833
 20
1080.602438
 42
-0.000211
  0
VERTEX
  8
0
 10
1303.884940
 20
1071.844842
 42
-0.345474
  0
VERTEX
  8
0
 10
1303.844686
 20
1071.511352
 42
-0.224403
  0
VERTEX
  8
0
 10
1303.502572
 20
1071.388829
 42
-0.002136
  0
VERTEX
  8
0
 10
1300.794286
 20
1071.665647
 42
-0.006579
  0
VERTEX
  8
0
 10
1297.648406
 20
1072.042698
 42
-0.004147
  0
VERTEX
  8
0
 10
1293.985394
 20
1072.561656
 42
0.005683
  0
VERTEX
  8
0
 10
1290.046417
 20
1073.107375
 42
0.005509
  0
VERTEX
  8
0
 10
1286.054941
 20
1073.569575
 42
0.005450
  0
VERTEX
  8
0
 10
1282.535193
 20
1073.899160
 42
0.020198
  0
VERTEX
  8
0
 10
1280.308021
 20
1073.992928
 42
0.000000
  0
VERTEX
  8
0
 10
1276.116041
 20
1074.000000
 42
0.000000
  0
VERTEX
  8
0
 10
1261.049616
 20
1099.081893
 42
-0.002779
  0
VERTEX
  8
0
 10
1255.310249
 20
1108.757938
 42
-0.004526
  0
VERTEX
  8
0
 10
1250.559836
 20
1117.040113
 42
-0.000925
  0
VERTEX
  8
0
 10
1246.481757
 20
1124.333213
 42
-0.271807
  0
VERTEX
  8
0
 10
1246.496836
 20
1124.994880
 42
-0.149043
  0
VERTEX
  8
0
 10
1246.908364
 20
1125.356776
 42
-0.021430
  0
VERTEX
  8
0
 10
1247.959621
 20
1125.779776
 42
-0.022753
  0
VERTEX
  8
0
 10
1249.283709
 20
1126.180967
 42
-0.017669
  0
VERTEX
  8
0
 10
1250.755240
 20
1126.499797
 42
0.026645
  0
VERTEX
  8
0
 10
1252.542050
 20
1126.920636
 42
0.011571
  0
VERTEX
  8
0
 10
1254.868727
 20
1127.660109
 42
0.011412
  0
VERTEX
  8
0
 10
1257.311588
 20
1128.562055
 42
0.014891
  0
VERTEX
  8
0
 10
1259.500000
 20
1129.503578
 42
-0.005926
  0
VERTEX
  8
0
 10
1261.487946
 20
1130.401423
 42
-0.007777
  0
VERTEX
  8
0
 10
1263.325000
 20
1131.171228
 42
-0.005905
  0
VERTEX
  8
0
 10
1264.874947
 20
1131.771417
 42
-0.070741
  0
VERTEX
  8
0
 10
1265.500000
 20
1131.908827
 42
-0.270882
  0
VERTEX
  8
0
 10
1266.115928
 20
1131.608317
 42
-0.000666
  0
VERTEX
  8
0
 10
1271.746167
 20
1123.134979
 42
-0.003827
  0
VERTEX
  8
0
 10
1278.056644
 20
1113.450236
 42
-0.002341
  0
SEQEND
  0
POLYLINE
  8
0
 66
1
 70
1
  0
VERTEX
  8
0
 10
1247.917853
 20
1099.356049
 42
-0.001096
  0
VERTEX
  8
0
 10
1253.315467
 20
1090.277453
 42
-0.001827
  0
VERTEX
  8
0
 10
1257.815345
 20
1082.607077
 42
-0.000135
  0
VERTEX
  8
0
 10
1261.817666
 20
1075.723073
 42
-0.403854
  0
VERTEX
  8
0
 10
1261.772716
 20
1075.540414
 42
-0.146763
  0
VERTEX
  8
0
 10
1261.537045
 20
1075.475086
 42
-0.000405
  0
VERTEX
  8
0
 10
1258.201985
 20
1075.547954
 42
-0.002383
  0
VERTEX
  8
0
 10
1254.428378
 20
1075.651459
 42
-0.001480
  0
VERTEX
  8
0
 10
1250.000000
 20
1075.807171
 42
0.000000
  0
VERTEX
  8
0
 10
1238.500000
 20
1076.245614
 42
0.000000
  0
VERTEX
  8
0
 10
1225.338683
 20
1097.872807
 42
-0.002199
  0
VERTEX
  8
0
 10
1220.323230
 20
1106.196602
 42
-0.003634
  0
VERTEX
  8
0
 10
1216.169941
 20
1113.275022
 42
-0.000548
  0
VERTEX
  8
0
 10
1212.557841
 20
1119.550769
 42
-0.337055
  0
VERTEX
  8
0
 10
1212.607796
 20
1119.935780
 42
-0.161423
  0
VERTEX
  8
0
 10
1213.235356
 20
1120.255736
 42
-0.000741
  0
VERTEX
  8
0
 10
1220.626355
 20
1121.372190
 42
-0.003835
  0
VERTEX
  8
0
 10
1227.473099
 20
1122.342423
 42
-0.011659
  0
VERTEX
  8
0
 10
1232.145137
 20
1122.857399
 42
-0.265919
  0
VERTEX
  8
0
 10
1233.316544
 20
1122.315419
 42
-0.006638
  0
VERTEX
  8
0
 10
1236.785939
 20
1117.291460
 42
-0.009956
  0
VERTEX
  8
0
 10
1241.371299
 20
1110.156247
 42
-0.003171
  0
SEQEND
  0
POLYLINE
  8
0
 66
1
 70
1
  0
VERTEX
  8
0
 10
1212.250000
 20
1098.139999
 42
-0.001279
  0
VERTEX
  8
0
 10
1217.137970
 20
1090.097230
 42
-0.002063
  0
VERTEX
  8
0
 10
1221.254688
 20
1083.220349
 42
-0.000328
  0
VERTEX
  8
0
 10
1224.870484
 20
1077.114169
 42
-0.134292
  0
VERTEX
  8
0
 10
1225.000000
 20
1076.640648
 42
-0.391844
  0
VERTEX
  8
0
 10
1224.760892
 20
1076.382388
 42
-0.003725
  0
VERTEX
  8
0
 10
1221.972098
 20
1076.188190
 42
-0.009692
  0
VERTEX
  8
0
 10
1218.644621
 20
1076.046058
 42
-0.005826
  0
VERTEX
  8
0
 10
1214.692248
 20
1076.000000
 42
0.000000
  0
VERTEX
  8
0
 10
1204.384496
 20
1076.000000
 42
0.000000
  0
VERTEX
  8
0
 10
1191.442248
 20
1096.164389
 42
-0.001751
  0
VERTEX
  8
0
 10
1186.458525
 20
1103.989324
 42
-0.002696
  0
VERTEX
  8
0
 10
1182.206809
 20
1110.797825
 42
-0.000880
  0
VERTEX
  8
0
 10
1178.571670
 20
1116.712701
 42
-0.078108
  0
VERTEX
  8
0
 10
1178.176676
 20
1117.664389
 42
-0.380110
  0
VERTEX
  8
0
 10
1178.532327
 20
1118.332812
 42
-0.057281
  0
VERTEX
  8
0
 10
1180.134833
 20
1118.726496
 42
-0.026740
  0
VERTEX
  8
0
 10
1183.127593
 20
1118.945338
 42
-0.004897
  0
VERTEX
  8
0
 10
1188.676676
 20
1118.999352
 42
0.000000
  0
VERTEX
  8
0
 10
1199.500000
 20
1118.998703
 42
0.000000
  0
SEQEND
  0
POLYLINE
  8
0
 66
1
 70
1
  0
VERTEX
  8
0
 10
1178.057786
 20
1096.718173
 42
0.000000
  0
VERTEX
  8
0
 10
1191.615572
 20
1075.500000
 42
0.000000
  0
VERTEX
  8
0
 10
1187.057786
 20
1074.837606
 42
-0.011010
  0
VERTEX
  8
0
 10
1184.939056
 20
1074.577181
 42
-0.005890
  0
VERTEX
  8
0
 10
1182.311851
 20
1074.344056
 42
-0.005860
  0
VERTEX
  8
0
 10
1179.623539
 20
1074.169059
 42
-0.009108
  0
VERTEX
  8
0
 10
1177.301706
 20
1074.087606
 42
0.000000
  0
VERTEX
  8
0
 10
1172.103412
 20
1074.000000
 42
0.000000
  0
VERTEX
  8
0
 10
1157.551706
 20
1095.061127
 42
-0.000825
  0
VERTEX
  8
0
 10
1151.972522
 20
1103.164610
 42
-0.001350
  0
VERTEX
  8
0
 10
1147.274564
 20
1110.052111
 42
-0.000129
  0
VERTEX
  8
0
 10
1143.089788
 20
1116.226416
 42
-0.149957
  0
VERTEX
  8
0
 10
1143.000000
 20
1116.519063
 42
-0.383791
  0
VERTEX
  8
0
 10
1143.150497
 20
1116.686250
 42
-0.002521
  0
VERTEX
  8
0
 10
1145.276562
 20
1116.899425
 42
-0.007947
  0
VERTEX
  8
0
 10
1147.778393
 20
1117.097478
 42
-0.004789
  0
VERTEX
  8
0
 10
1150.750000
 20
1117.256692
 42
0.000431
  0
VERTEX
  8
0
 10
1153.937110
 20
1117.399603
 42
0.000439
  0
VERTEX
  8
0
 10
1157.104687
 20
1117.547162
 42
0.000426
  0
VERTEX
  8
0
 10
1159.857706
 20
1117.680181
 42
0.001820
  0
VERTEX
  8
0
 10
1161.500000
 20
1117.766928
 42
-0.173832
  0
VERTEX
  8
0
 10
1163.698005
 20
1117.116249
 42
-0.068160
  0
VERTEX
  8
0
 10
1166.005054
 20
1114.887461
 42
-0.022669
  0
VERTEX
  8
0
 10
1169.498040
 20
1110.007204
 42
-0.001824
  0
SEQEND
  0
POLYLINE
  8
0
 66
1
 70
1
  0
VERTEX
  8
0
 10
1143.914993
 20
1095.343326
 42
-0.001137
  0
VERTEX
  8
0
 10
1149.417188
 20
1087.338616
 42
-0.001760
  0
VERTEX
  8
0
 10
1154.128103
 20
1080.399303
 42
-0.000522
  0
VERTEX
  8
0
 10
1158.193270
 20
1074.351979
 42
-0.056156
  0
VERTEX
  8
0
 10
1158.647085
 20
1073.477300
 42
-0.388395
  0
VERTEX
  8
0
 10
1158.412547
 20
1072.880615
 42
-0.054129
  0
VERTEX
  8
0
 10
1157.049283
 20
1072.387301
 42
-0.030444
  0
VERTEX
  8
0
 10
1154.648258
 20
1071.954894
 42
-0.008257
  0
VERTEX
  8
0
 10
1150.805578
 20
1071.566234
 42
0.003190
  0
VERTEX
  8
0
 10
1147.478956
 20
1071.263793
 42
0.003825
  0
VERTEX
  8
0
 10
1144.352264
 20
1070.935239
 42
0.003291
  0
VERTEX
  8
0
 10
1141.722886
 20
1070.621052
 42
0.025261
  0
VERTEX
  8
0
 10
1140.500000
 20
1070.403550
 42
-0.264607
  0
VERTEX
  8
0
 10
1138.946615
 20
1070.868499
 42
-0.027282
  0
VERTEX
  8
0
 10
1136.363414
 20
1073.885677
 42
-0.016466
  0
VERTEX
  8
0
 10
1132.431634
 20
1079.386308
 42
-0.002591
  0
VERTEX
  8
0
 10
1125.111423
 20
1090.499379
 42
-0.002377
  0
VERTEX
  8
0
 10
1120.010204
 20
1098.413795
 42
-0.003931
  0
VERTEX
  8
0
 10
1115.787870
 20
1105.149749
 42
-0.000635
  0
VERTEX
  8
0
 10
1112.125960
 20
1111.111958
 42
-0.346696
  0
VERTEX
  8
0
 10
1112.172648
 20
1111.505982
 42
-0.132526
  0
VERTEX
  8
0
 10
1112.790810
 20
1111.861463
 42
-0.000620
  0
VERTEX
  8
0
 10
1120.009751
 20
1113.759656
 42
-0.002077
  0
VERTEX
  8
0
 10
1126.688814
 20
1115.477422
 42
-0.030507
  0
VERTEX
  8
0
 10
1129.073487
 20
1115.927596
 42
-0.274043
  0
VERTEX
  8
0
 10
1129.437474
 20
1115.769671
 42
-0.000448
  0
VERTEX
  8
0
 10
1133.669742
 20
1109.910833
 42
-0.003141
  0
VERTEX
  8
0
 10
1138.403216
 20
1103.258103
 42
-0.001914
  0
SEQEND
  0
POLYLINE
  8
0
 66
1
 70
1
  0
VERTEX
  8
0
 10
1113.576713
 20
1087.882887
 42
-0.001545
  0
VERTEX
  8
0
 10
1118.356836
 20
1080.535962
 42
-0.002572
  0
VERTEX
  8
0
 10
1122.332660
 20
1074.313748
 42
-0.000267
  0
VERTEX
  8
0
 10
1125.839044
 20
1068.756922
 42
-0.387157
  0
VERTEX
  8
0
 10
1125.799553
 20
1068.535382
 42
-0.119469
  0
VERTEX
  8
0
 10
1125.538255
 20
1068.419379
 42
-0.000669
  0
VERTEX
  8
0
 10
1122.850145
 20
1067.933936
 42
-0.002823
  0
VERTEX
  8
0
 10
1119.774015
 20
1067.400580
 42
-0.001784
  0
VERTEX
  8
0
 10
1116.179663
 20
1066.811433
 42
0.000000
  0
VERTEX
  8
0
 10
1106.859327
 20
1065.317876
 42
0.000000
  0
VERTEX
  8
0
 10
1104.545882
 20
1068.408938
 42
-0.007475
  0
VERTEX
  8
0
 10
1103.147429
 20
1070.336872
 42
-0.000869
  0
VERTEX
  8
0
 10
1100.089220
 20
1074.704500
 42
-0.001044
  0
VERTEX
  8
0
 10
1096.471857
 20
1079.912984
 42
-0.000853
  0
VERTEX
  8
0
 10
1092.622934
 20
1085.500000
 42
0.000000
  0
VERTEX
  8
0
 10
1083.013431
 20
1099.500000
 42
0.000000
  0
VERTEX
  8
0
 10
1090.756715
 20
1103.220053
 42
-0.005676
  0
VERTEX
  8
0
 10
1093.815842
 20
1104.647217
 42
-0.007794
  0
VERTEX
  8
0
 10
1096.600576
 20
1105.856137
 42
-0.005303
  0
VERTEX
  8
0
 10
1098.951274
 20
1106.804262
 42
-0.087555
  0
VERTEX
  8
0
 10
1099.777160
 20
1106.970053
 42
-0.244425
  0
VERTEX
  8
0
 10
1100.549502
 20
1106.591231
 42
-0.002340
  0
VERTEX
  8
0
 10
1104.357607
 20
1101.375551
 42
-0.007077
  0
VERTEX
  8
0
 10
1108.684261
 20
1095.209066
 42
-0.004441
  0
SEQEND
  0
POLYLINE
  8
0
 66
1
 70
1
  0
VERTEX
  8
0
 10
1083.796565
 20
1078.875848
 42
-0.002294
  0
VERTEX
  8
0
 10
1087.721415
 20
1073.056699
 42
-0.003798
  0
VERTEX
  8
0
 10
1090.973828
 20
1068.105450
 42
-0.000591
  0
VERTEX
  8
0
 10
1093.800965
 20
1063.718159
 42
-0.352792
  0
VERTEX
  8
0
 10
1093.770793
 20
1063.437460
 42
-0.141850
  0
VERTEX
  8
0
 10
1093.203107
 20
1063.124689
 42
-0.000356
  0
VERTEX
  8
0
 10
1084.169939
 20
1061.094777
 42
-0.000845
  0
VERTEX
  8
0
 10
1075.496264
 20
1059.167522
 42
-0.054292
  0
VERTEX
  8
0
 10
1073.958021
 20
1059.000000
 42
-0.212295
  0
VERTEX
  8
0
 10
1073.547651
 20
1059.182462
 42
-0.001327
  0
VERTEX
  8
0
 10
1070.789728
 20
1062.255648
 42
-0.005050
  0
VERTEX
  8
0
 10
1067.659584
 20
1065.834397
 42
-0.003161
  0
VERTEX
  8
0
 10
1064.064914
 20
1070.083056
 42
0.000000
  0
VERTEX
  8
0
 10
1054.807425
 20
1081.166111
 42
0.000000
  0
VERTEX
  8
0
 10
1057.153713
 20
1083.725390
 42
-0.047226
  0
VERTEX
  8
0
 10
1060.019482
 20
1086.312855
 42
-0.011841
  0
VERTEX
  8
0
 10
1065.164323
 20
1089.957488
 42
-0.007297
  0
VERTEX
  8
0
 10
1070.526921
 20
1093.456117
 42
-0.142752
  0
VERTEX
  8
0
 10
1072.405036
 20
1093.995949
 42
-0.231815
  0
VERTEX
  8
0
 10
1073.070034
 20
1093.667070
 42
-0.002563
  0
VERTEX
  8
0
 10
1076.202970
 20
1089.552748
 42
-0.007309
  0
VERTEX
  8
0
 10
1079.770616
 20
1084.670491
 42
-0.004617
  0
SEQEND
  0
POLYLINE
  8
0
 66
1
 70
1
  0
VERTEX
  8
0
 10
1054.690762
 20
1063.950748
 42
-0.002906
  0
VERTEX
  8
0
 10
1056.936926
 20
1061.192618
 42
-0.004276
  0
VERTEX
  8
0
 10
1058.875328
 20
1058.741306
 42
-0.002057
  0
VERTEX
  8
0
 10
1060.494828
 20
1056.639090
 42
-0.078127
  0
VERTEX
  8
0
 10
1060.778440
 20
1056.115427
 42
-0.393007
  0
VERTEX
  8
0
 10
1060.609613
 20
1055.725388
 42
-0.010126
  0
VERTEX
  8
0
 10
1058.690172
 20
1054.929382
 42
-0.016195
  0
VERTEX
  8
0
 10
1056.240987
 20
1054.061685
 42
-0.009675
  0
VERTEX
  8
0
 10
1053.278440
 20
1053.181667
 42
0.000805
  0
VERTEX
  8
0
 10
1049.804525
 20
1052.216469
 42
0.000519
  0
VERTEX
  8
0
 10
1045.782910
 20
1051.087615
 42
0.000522
  0
VERTEX
  8
0
 10
1041.852768
 20
1049.975603
 42
0.000985
  0
VERTEX
  8
0
 10
1038.684658
 20
1049.068885
 42
0.000000
  0
VERTEX
  8
0
 10
1031.869315
 20
1047.103795
 42
0.000000
  0
VERTEX
  8
0
 10
1033.684658
 20
1049.917829
 42
-0.002297
  0
VERTEX
  8
0
 10
1039.443426
 20
1058.755318
 42
-0.005228
  0
VERTEX
  8
0
 10
1043.893375
 20
1065.364636
 42
-0.001626
  0
VERTEX
  8
0
 10
1047.553005
 20
1070.642508
 42
-0.239043
  0
VERTEX
  8
0
 10
1048.190762
 20
1070.984311
 42
-0.211240
  0
VERTEX
  8
0
 10
1048.620743
 20
1070.805728
 42
-0.003699
  0
VERTEX
  8
0
 10
1050.385077
 20
1068.924674
 42
-0.008627
  0
VERTEX
  8
0
 10
1052.414268
 20
1066.651453
 42
-0.005557
  0
SEQEND
  0
POLYLINE
  8
0
 66
1
 70
1
  0
VERTEX
  8
0
 10
1289.663918
 20
1061.600367
 42
-0.010280
  0
VERTEX
  8
0
 10
1311.406145
 20
1058.016429
 42
-0.007189
  0
VERTEX
  8
0
 10
1335.759452
 20
1053.122736
 42
-0.007102
  0
VERTEX
  8
0
 10
1358.397888
 20
1047.896391
 42
-0.020254
  0
VERTEX
  8
0
 10
1373.929977
 20
1043.403266
 42
-0.017437
  0
VERTEX
  8
0
 10
1416.340270
 20
1027.586648
 42
-0.019267
  0
VERTEX
  8
0
 10
1456.128682
 20
1009.321286
 42
-0.020226
  0
VERTEX
  8
0
 10
1492.462986
 20
989.028836
 42
-0.024928
  0
VERTEX
  8
0
 10
1524.500000
 20
967.128381
 42
-0.042709
  0
VERTEX
  8
0
 10
1553.331900
 20
941.073565
 42
-0.024645
  0
VERTEX
  8
0
 10
1583.529525
 20
905.316614
 42
-0.024671
  0
VERTEX
  8
0
 10
1609.442052
 20
867.658664
 42
-0.053406
  0
VERTEX
  8
0
 10
1624.604498
 20
836.000000
 42
-0.048344
  0
VERTEX
  8
0
 10
1626.746049
 20
827.373399
 42
-0.025858
  0
VERTEX
  8
0
 10
1627.788882
 20
816.430880
 42
-0.023571
  0
VERTEX
  8
0
 10
1627.741540
 20
804.052968
 42
-0.019863
  0
VERTEX
  8
0
 10
1626.554648
 20
791.000000
 42
-0.015144
  0
VERTEX
  8
0
 10
1624.636422
 20
779.165241
 42
-0.005181
  0
VERTEX
  8
0
 10
1621.160098
 20
762.132889
 42
-0.005076
  0
VERTEX
  8
0
 10
1616.872091
 20
743.122767
 42
-0.005321
  0
VERTEX
  8
0
 10
1612.262530
 20
724.500000
 42
0.024310
  0
VERTEX
  8
0
 10
1609.253356
 20
710.003871
 42
0.060997
  0
VERTEX
  8
0
 10
1608.884495
 20
699.230838
 42
0.050738
  0
VERTEX
  8
0
 10
1611.114839
 20
687.571279
 42
0.012845
  0
VERTEX
  8
0
 10
1617.119059
 20
669.212487
 42
-0.012696
  0
VERTEX
  8
0
 10
1617.839071
 20
667.013160
 42
-0.012650
  0
VERTEX
  8
0
 10
1618.447473
 20
664.777422
 42
-0.012581
  0
VERTEX
  8
0
 10
1618.879879
 20
662.799540
 42
-0.047554
  0
VERTEX
  8
0
 10
1619.000000
 20
661.539410
 42
-0.149319
  0
VERTEX
  8
0
 10
1618.217101
 20
658.976299
 42
-0.049927
  0
VERTEX
  8
0
 10
1615.686927
 20
655.927275
 42
-0.046138
  0
VERTEX
  8
0
 10
1612.148178
 20
653.029465
 42
-0.047280
  0
VERTEX
  8
0
 10
1608.165877
 20
650.856778
 42
-0.025081
  0
VERTEX
  8
0
 10
1603.848780
 20
649.257355
 42
-0.010048
  0
VERTEX
  8
0
 10
1597.799886
 20
647.488062
 42
-0.003058
  0
VERTEX
  8
0
 10
1591.470747
 20
645.815557
 42
-0.318031
  0
VERTEX
  8
0
 10
1590.672315
 20
646.119374
 42
-0.067254
  0
VERTEX
  8
0
 10
1590.521019
 20
646.427016
 42
-0.000865
  0
VERTEX
  8
0
 10
1589.838562
 20
648.479344
 42
-0.002497
  0
VERTEX
  8
0
 10
1589.063699
 20
650.862969
 42
-0.001633
  0
VERTEX
  8
0
 10
1588.192938
 20
653.618818
 42
0.035034
  0
VERTEX
  8
0
 10
1585.602275
 20
660.242767
 42
0.031753
  0
VERTEX
  8
0
 10
1582.037422
 20
666.670967
 42
0.033259
  0
VERTEX
  8
0
 10
1577.966302
 20
672.181120
 42
0.060341
  0
VERTEX
  8
0
 10
1573.862714
 20
675.984490
 42
0.028553
  0
VERTEX
  8
0
 10
1571.193228
 20
677.694877
 42
0.003663
  0
VERTEX
  8
0
 10
1565.239883
 20
680.989113
 42
0.004274
  0
VERTEX
  8
0
 10
1558.106292
 20
684.789794
 42
0.003550
  0
VERTEX
  8
0
 10
1550.454784
 20
688.713963
 42
0.000000
  0
VERTEX
  8
0
 10
1531.281403
 20
698.375944
 42
0.000000
  0
VERTEX
  8
0
 10
1530.119865
 20
714.437972
 42
0.000990
  0
VERTEX
  8
0
 10
1529.635679
 20
720.953999
 42
0.001096
  0
VERTEX
  8
0
 10
1529.141371
 20
727.250529
 42
0.001015
  0
VERTEX
  8
0
 10
1528.696760
 20
732.623088
 42
0.005668
  0
VERTEX
  8
0
 10
1528.419917
 20
735.500000
 42
0.000000
  0
VERTEX
  8
0
 10
1527.881505
 20
740.500000
 42
0.000000
  0
VERTEX
  8
0
 10
1532.135087
 20
742.891704
 42
0.039173
  0
VERTEX
  8
0
 10
1536.986677
 20
746.143831
 42
0.032096
  0
VERTEX
  8
0
 10
1541.627166
 20
750.321870
 42
0.032470
  0
VERTEX
  8
0
 10
1545.631223
 20
754.992539
 42
0.043727
  0
VERTEX
  8
0
 10
1548.571005
 20
759.719413
 42
0.022307
  0
VERTEX
  8
0
 10
1550.063113
 20
763.021706
 42
0.036796
  0
VERTEX
  8
0
 10
1550.985820
 20
765.940158
 42
0.033152
  0
VERTEX
  8
0
 10
1551.528075
 20
769.169153
 42
0.014522
  0
VERTEX
  8
0
 10
1551.836340
 20
773.500000
 42
0.038999
  0
VERTEX
  8
0
 10
1551.580447
 20
780.616706
 42
0.054525
  0
VERTEX
  8
0
 10
1550.174747
 20
786.819991
 42
0.055987
  0
VERTEX
  8
0
 10
1547.499480
 20
792.449335
 42
0.044232
  0
VERTEX
  8
0
 10
1543.448745
 20
797.845784
 42
0.050532
  0
VERTEX
  8
0
 10
1536.067671
 20
804.551723
 42
0.058161
  0
VERTEX
  8
0
 10
1527.815378
 20
809.280397
 42
0.056688
  0
VERTEX
  8
0
 10
1518.513928
 20
812.065134
 42
0.044439
  0
VERTEX
  8
0
 10
1508.016241
 20
813.000000
 42
0.058495
  0
VERTEX
  8
0
 10
1494.545141
 20
811.418612
 42
0.073091
  0
VERTEX
  8
0
 10
1482.863029
 20
806.757574
 42
0.076807
  0
VERTEX
  8
0
 10
1473.454441
 20
799.166796
 42
0.074006
  0
VERTEX
  8
0
 10
1466.634351
 20
789.000000
 42
0.017281
  0
VERTEX
  8
0
 10
1465.014929
 20
785.259430
 42
0.039302
  0
VERTEX
  8
0
 10
1464.118885
 20
782.315395
 42
0.038410
  0
VERTEX
  8
0
 10
1463.683246
 20
779.226408
 42
0.015832
  0
VERTEX
  8
0
 10
1463.549386
 20
775.000000
 42
0.111899
  0
VERTEX
  8
0
 10
1466.898790
 20
760.221159
 42
0.104864
  0
VERTEX
  8
0
 10
1476.336391
 20
747.927085
 42
0.096634
  0
VERTEX
  8
0
 10
1490.694672
 20
739.811423
 42
0.080621
  0
VERTEX
  8
0
 10
1508.017437
 20
737.000000
 42
0.000000
  0
VERTEX
  8
0
 10
1516.824204
 20
737.000000
 42
0.000000
  0
VERTEX
  8
0
 10
1517.383749
 20
733.250000
 42
-0.014274
  0
VERTEX
  8
0
 10
1517.658352
 20
730.964406
 42
-0.001835
  0
VERTEX
  8
0
 10
1518.088886
 20
726.048437
 42
-0.002143
  0
VERTEX
  8
0
 10
1518.553473
 20
720.209494
 42
-0.001786
  0
VERTEX
  8
0
 10
1518.998474
 20
714.000000
 42
0.000999
  0
VERTEX
  8
0
 10
1519.473283
 20
707.225229
 42
0.000722
  0
VERTEX
  8
0
 10
1520.028575
 20
699.675000
 42
0.000730
  0
VERTEX
  8
0
 10
1520.577090
 20
692.501739
 42
0.001589
  0
VERTEX
  8
0
 10
1521.023455
 20
687.000000
 42
-0.000652
  0
VERTEX
  8
0
 10
1521.472069
 20
681.596114
 42
-0.000327
  0
VERTEX
  8
0
 10
1522.025652
 20
674.765625
 42
-0.000325
  0
VERTEX
  8
0
 10
1522.589149
 20
667.698471
 42
-0.000480
  0
VERTEX
  8
0
 10
1523.073344
 20
661.500000
 42
0.006409
  0
VERTEX
  8
0
 10
1523.814870
 20
653.266100
 42
0.012484
  0
VERTEX
  8
0
 10
1524.654257
 20
646.723618
 42
0.011977
  0
VERTEX
  8
0
 10
1525.843184
 20
640.058347
 42
0.005410
  0
VERTEX
  8
0
 10
1527.704793
 20
631.379249
 42
-0.143183
  0
VERTEX
  8
0
 10
1527.629561
 20
630.173634
 42
-0.181708
  0
VERTEX
  8
0
 10
1526.910992
 20
629.331257
 42
-0.063456
  0
VERTEX
  8
0
 10
1525.136877
 20
628.626122
 42
-0.006860
  0
VERTEX
  8
0
 10
1520.841870
 20
627.584845
 42
-0.013842
  0
VERTEX
  8
0
 10
1503.111773
 20
624.056288
 42
-0.020214
  0
VERTEX
  8
0
 10
1487.321105
 20
622.018437
 42
-0.021500
  0
VERTEX
  8
0
 10
1472.194898
 20
621.338380
 42
-0.019270
  0
VERTEX
  8
0
 10
1456.500000
 20
621.913100
 42
-0.013248
  0
VERTEX
  8
0
 10
1437.218941
 20
623.879453
 42
-0.009739
  0
VERTEX
  8
0
 10
1415.969802
 20
627.038906
 42
-0.009860
  0
VERTEX
  8
0
 10
1395.947674
 20
630.823219
 42
-0.021276
  0
VERTEX
  8
0
 10
1380.750000
 20
634.688745
 42
-0.006194
  0
VERTEX
  8
0
 10
1375.620692
 20
636.297946
 42
-0.052268
  0
VERTEX
  8
0
 10
1373.413302
 20
637.285909
 42
-0.132846
  0
VERTEX
  8
0
 10
1372.378594
 20
638.328972
 42
-0.130033
  0
VERTEX
  8
0
 10
1372.000000
 20
639.760118
 42
0.079078
  0
VERTEX
  8
0
 10
1371.215769
 20
644.687702
 42
0.013383
  0
VERTEX
  8
0
 10
1368.006466
 20
653.690927
 42
0.014713
  0
VERTEX
  8
0
 10
1363.706660
 20
663.900555
 42
0.014511
  0
VERTEX
  8
0
 10
1358.795335
 20
673.887364
 42
0.000000
  0
VERTEX
  8
0
 10
1351.716559
 20
687.285184
 42
0.000000
  0
VERTEX
  8
0
 10
1356.108279
 20
690.815303
 42
0.051903
  0
VERTEX
  8
0
 10
1369.712946
 20
704.294707
 42
0.065148
  0
VERTEX
  8
0
 10
1379.076990
 20
719.357486
 42
0.069311
  0
VERTEX
  8
0
 10
1383.858224
 20
735.516025
 42
0.070998
  0
VERTEX
  8
0
 10
1383.984051
 20
752.229920
 42
0.022861
  0
VERTEX
  8
0
 10
1382.903429
 20
758.170322
 42
0.012897
  0
VERTEX
  8
0
 10
1381.080851
 20
765.265231
 42
0.012137
  0
VERTEX
  8
0
 10
1378.707835
 20
772.895617
 42
0.011685
  0
VERTEX
  8
0
 10
1375.939279
 20
780.500000
 42
-0.107153
  0
VERTEX
  8
0
 10
1375.583843
 20
782.716065
 42
-0.081589
  0
VERTEX
  8
0
 10
1376.115260
 20
785.123317
 42
-0.031203
  0
VERTEX
  8
0
 10
1377.881927
 20
788.851966
 42
-0.003087
  0
VERTEX
  8
0
 10
1382.731056
 20
797.500000
 42
0.001090
  0
VERTEX
  8
0
 10
1386.508661
 20
804.174430
 42
0.000512
  0
VERTEX
  8
0
 10
1391.366443
 20
812.821875
 42
0.000507
  0
VERTEX
  8
0
 10
1396.438751
 20
821.894447
 42
0.000713
  0
VERTEX
  8
0
 10
1400.944493
 20
830.000000
 42
-0.002214
  0
VERTEX
  8
0
 10
1408.911236
 20
844.230941
 42
-0.009599
  0
VERTEX
  8
0
 10
1413.835878
 20
852.559878
 42
-0.010589
  0
VERTEX
  8
0
 10
1418.852025
 20
860.311328
 42
-0.003107
  0
VERTEX
  8
0
 10
1426.878610
 20
872.000000
 42
-0.007264
  0
VERTEX
  8
0
 10
1434.508259
 20
882.631215
 42
-0.010603
  0
VERTEX
  8
0
 10
1441.559834
 20
891.750630
 42
-0.012116
  0
VERTEX
  8
0
 10
1447.867021
 20
899.183537
 42
-0.025813
  0
VERTEX
  8
0
 10
1453.163752
 20
904.543139
 42
-0.013942
  0
VERTEX
  8
0
 10
1455.669754
 20
906.704977
 42
-0.002773
  0
VERTEX
  8
0
 10
1460.277229
 20
910.418479
 42
-0.002932
  0
VERTEX
  8
0
 10
1465.692933
 20
914.682381
 42
-0.002727
  0
VERTEX
  8
0
 10
1471.290645
 20
918.987853
 42
0.007757
  0
VERTEX
  8
0
 10
1480.562162
 20
926.268636
 42
0.056963
  0
VERTEX
  8
0
 10
1484.502756
 20
930.285802
 42
0.161454
  0
VERTEX
  8
0
 10
1485.549195
 20
933.226925
 42
0.191606
  0
VERTEX
  8
0
 10
1484.525645
 20
935.971662
 42
0.092499
  0
VERTEX
  8
0
 10
1481.441965
 20
938.319583
 42
0.000653
  0
VERTEX
  8
0
 10
1452.002026
 20
953.088595
 42
0.002196
  0
VERTEX
  8
0
 10
1424.847013
 20
966.518263
 42
0.018978
  0
VERTEX
  8
0
 10
1412.500000
 20
971.986845
 42
0.021288
  0
VERTEX
  8
0
 10
1400.205620
 20
976.286346
 42
0.015006
  0
VERTEX
  8
0
 10
1386.068142
 20
980.105403
 42
0.009230
  0
VERTEX
  8
0
 10
1366.146305
 20
984.463554
 42
0.002227
  0
VERTEX
  8
0
 10
1333.000000
 20
990.922704
 42
0.005753
  0
VERTEX
  8
0
 10
1283.148074
 20
999.813943
 42
0.015910
  0
VERTEX
  8
0
 10
1247.821246
 20
1004.546549
 42
0.018991
  0
VERTEX
  8
0
 10
1215.963249
 20
1006.568357
 42
0.011799
  0
VERTEX
  8
0
 10
1178.500000
 20
1006.635919
 42
0.009412
  0
VERTEX
  8
0
 10
1141.969075
 20
1005.151332
 42
0.014945
  0
VERTEX
  8
0
 10
1110.795728
 20
1002.359255
 42
0.016095
  0
VERTEX
  8
0
 10
1081.600317
 20
997.904885
 42
0.013771
  0
VERTEX
  8
0
 10
1051.179773
 20
991.384978
 42
0.022831
  0
VERTEX
  8
0
 10
1004.663581
 20
977.790883
 42
0.038110
  0
VERTEX
  8
0
 10
967.213962
 20
961.684691
 42
0.041599
  0
VERTEX
  8
0
 10
934.996428
 20
941.238505
 42
0.034776
  0
VERTEX
  8
0
 10
904.483933
 20
914.575834
 42
0.029840
  0
VERTEX
  8
0
 10
878.897213
 20
885.604820
 42
0.029590
  0
VERTEX
  8
0
 10
856.863620
 20
853.715633
 42
0.029227
  0
VERTEX
  8
0
 10
838.509188
 20
819.056379
 42
0.027546
  0
VERTEX
  8
0
 10
823.912633
 20
781.811086
 42
0.009241
  0
VERTEX
  8
0
 10
819.568934
 20
767.766522
 42
0.009936
  0
VERTEX
  8
0
 10
815.857835
 20
753.905241
 42
0.007950
  0
VERTEX
  8
0
 10
812.093749
 20
737.521421
 42
0.003273
  0
VERTEX
  8
0
 10
807.492352
 20
715.209606
 42
-0.000957
  0
VERTEX
  8
0
 10
805.070136
 20
703.183122
 42
-0.001560
  0
VERTEX
  8
0
 10
802.963474
 20
692.988751
 42
-0.000177
  0
VERTEX
  8
0
 10
801.052701
 20
683.901658
 42
-0.145461
  0
VERTEX
  8
0
 10
800.837177
 20
683.503844
 42
-0.228108
  0
VERTEX
  8
0
 10
800.465124
 20
683.373550
 42
-0.003252
  0
VERTEX
  8
0
 10
798.058433
 20
683.659326
 42
-0.008244
  0
VERTEX
  8
0
 10
795.234016
 20
684.060751
 42
-0.005249
  0
VERTEX
  8
0
 10
791.960905
 20
684.616427
 42
0.017123
  0
VERTEX
  8
0
 10
787.203560
 20
685.308303
 42
0.017506
  0
VERTEX
  8
0
 10
782.444939
 20
685.666682
 42
0.014844
  0
VERTEX
  8
0
 10
777.034137
 20
685.723367
 42
0.007504
  0
VERTEX
  8
0
 10
770.219284
 20
685.490082
 42
0.000000
  0
VERTEX
  8
0
 10
756.938569
 20
684.835786
 42
0.000000
  0
VERTEX
  8
0
 10
761.886412
 20
694.167893
 42
0.021494
  0
VERTEX
  8
0
 10
766.615508
 20
704.096149
 42
0.020650
  0
VERTEX
  8
0
 10
770.544290
 20
714.525763
 42
0.014212
  0
VERTEX
  8
0
 10
774.637383
 20
728.214986
 42
0.004147
  0
VERTEX
  8
0
 10
780.159150
 20
749.500000
 42
-0.004477
  0
VERTEX
  8
0
 10
783.176615
 20
761.099997
 42
-0.004302
  0
VERTEX
  8
0
 10
786.440464
 20
772.800000
 42
-0.004261
  0
VERTEX
  8
0
 10
789.494564
 20
783.065532
 42
-0.015524
  0
VERTEX
  8
0
 10
791.689456
 20
789.500000
 42
0.000082
  0
VERTEX
  8
0
 10
794.093908
 20
795.895385
 42
0.000022
  0
VERTEX
  8
0
 10
797.910461
 20
806.053125
 42
0.000022
  0
VERTEX
  8
0
 10
802.244554
 20
817.591413
 42
0.000023
  0
VERTEX
  8
0
 10
806.528743
 20
829.000000
 42
-0.001799
  0
VERTEX
  8
0
 10
814.919724
 20
851.105946
 42
-0.007043
  0
VERTEX
  8
0
 10
820.341281
 20
864.661566
 42
-0.010406
  0
VERTEX
  8
0
 10
824.972073
 20
875.161838
 42
-0.008967
  0
VERTEX
  8
0
 10
830.262440
 20
886.000000
 42
-0.021743
  0
VERTEX
  8
0
 10
839.468232
 20
902.246852
 42
-0.023026
  0
VERTEX
  8
0
 10
849.888278
 20
917.314402
 42
-0.021726
  0
VERTEX
  8
0
 10
862.201830
 20
932.097090
 42
-0.015711
  0
VERTEX
  8
0
 10
877.121727
 20
947.502482
 42
-0.031836
  0
VERTEX
  8
0
 10
908.895335
 20
974.611011
 42
-0.030473
  0
VERTEX
  8
0
 10
944.305373
 20
997.899647
 42
-0.029334
  0
VERTEX
  8
0
 10
983.601887
 20
1017.475887
 42
-0.025094
  0
VERTEX
  8
0
 10
1027.000000
 20
1033.482525
 42
-0.013476
  0
VERTEX
  8
0
 10
1063.564999
 20
1043.847697
 42
-0.013980
  0
VERTEX
  8
0
 10
1100.192096
 20
1052.088933
 42
-0.014219
  0
VERTEX
  8
0
 10
1136.598039
 20
1058.148173
 42
-0.015187
  0
VERTEX
  8
0
 10
1172.500000
 20
1061.972341
 42
0.000425
  0
VERTEX
  8
0
 10
1178.153301
 20
1062.406214
 42
0.000485
  0
VERTEX
  8
0
 10
1183.562500
 20
1062.831261
 42
0.000438
  0
VERTEX
  8
0
 10
1188.153652
 20
1063.200561
 42
0.002744
  0
VERTEX
  8
0
 10
1190.500000
 20
1063.404333
 42
-0.021937
  0
VERTEX
  8
0
 10
1193.382566
 20
1063.543527
 42
-0.000632
  0
VERTEX
  8
0
 10
1205.662500
 20
1063.581843
 42
-0.001277
  0
VERTEX
  8
0
 10
1220.117117
 20
1063.571769
 42
-0.000879
  0
VERTEX
  8
0
 10
1236.500000
 20
1063.489731
 42
-0.001739
  0
VERTEX
  8
0
 10
1257.670585
 20
1063.272886
 42
-0.005451
  0
VERTEX
  8
0
 10
1271.894292
 20
1062.922601
 42
-0.007939
  0
VERTEX
  8
0
 10
1282.105383
 20
1062.397280
 42
-0.018885
  0
SEQEND
  0
POLYLINE
  8
0
 66
1
 70
1
  0
VERTEX
  8
0
 10
1185.662895
 20
993.387747
 42
-0.128054
  0
VERTEX
  8
0
 10
1186.170859
 20
991.904661
 42
-0.134450
  0
VERTEX
  8
0
 10
1185.876765
 20
990.392097
 42
-0.049492
  0
VERTEX
  8
0
 10
1184.507891
 20
988.200139
 42
-0.005058
  0
VERTEX
  8
0
 10
1180.716685
 20
983.387747
 42
0.005756
  0
VERTEX
  8
0
 10
1178.235268
 20
980.228888
 42
0.007371
  0
VERTEX
  8
0
 10
1176.027769
 20
977.261572
 42
0.005846
  0
VERTEX
  8
0
 10
1174.249279
 20
974.734086
 42
0.060780
  0
VERTEX
  8
0
 10
1173.663488
 20
973.609095
 42
0.149142
  0
VERTEX
  8
0
 10
1173.525728
 20
971.410015
 42
0.110343
  0
VERTEX
  8
0
 10
1174.599313
 20
969.206315
 42
0.104468
  0
VERTEX
  8
0
 10
1176.572688
 20
967.579322
 42
0.120911
  0
VERTEX
  8
0
 10
1178.933330
 20
967.000000
 42
0.101768
  0
VERTEX
  8
0
 10
1180.699459
 20
967.363231
 42
0.074217
  0
VERTEX
  8
0
 10
1182.408534
 20
968.420116
 42
0.040352
  0
VERTEX
  8
0
 10
1184.510388
 20
970.510485
 42
0.008453
  0
VERTEX
  8
0
 10
1187.819216
 20
974.514888
 42
0.000000
  0
VERTEX
  8
0
 10
1193.817878
 20
982.029777
 42
0.000000
  0
VERTEX
  8
0
 10
1199.075773
 20
974.764888
 42
0.000746
  0
VERTEX
  8
0
 10
1201.259278
 20
971.757373
 42
0.000725
  0
VERTEX
  8
0
 10
1203.472033
 20
968.728355
 42
0.000715
  0
VERTEX
  8
0
 10
1205.424722
 20
966.071442
 42
0.002702
  0
VERTEX
  8
0
 10
1206.658339
 20
964.416746
 42
0.000000
  0
VERTEX
  8
0
 10
1208.983010
 20
961.333493
 42
0.000000
  0
VERTEX
  8
0
 10
1206.019325
 20
957.416746
 42
0.048039
  0
VERTEX
  8
0
 10
1203.939103
 20
954.037117
 42
0.095919
  0
VERTEX
  8
0
 10
1203.121595
 20
951.018688
 42
0.128652
  0
VERTEX
  8
0
 10
1203.586390
 20
948.502442
 42
0.131049
  0
VERTEX
  8
0
 10
1205.222506
 20
946.556704
 42
0.053009
  0
VERTEX
  8
0
 10
1207.401177
 20
945.352040
 42
0.153367
  0
VERTEX
  8
0
 10
1209.097351
 20
945.190737
 42
0.125495
  0
VERTEX
  8
0
 10
1210.793310
 20
946.029377
 42
0.030443
  0
VERTEX
  8
0
 10
1213.056230
 20
948.222707
 42
-0.008363
  0
VERTEX
  8
0
 10
1214.973848
 20
950.252974
 42
-0.129851
  0
VERTEX
  8
0
 10
1215.789290
 20
950.740601
 42
-0.272376
  0
VERTEX
  8
0
 10
1216.468737
 20
950.566266
 42
-0.043319
  0
VERTEX
  8
0
 10
1217.392068
 20
949.472707
 42
0.003229
  0
VERTEX
  8
0
 10
1218.233963
 20
948.296096
 42
0.000452
  0
VERTEX
  8
0
 10
1219.991409
 20
945.877755
 42
0.000517
  0
VERTEX
  8
0
 10
1222.077338
 20
943.019071
 42
0.000439
  0
VERTEX
  8
0
 10
1224.285673
 20
940.004755
 42
0.000000
  0
VERTEX
  8
0
 10
1229.786929
 20
932.509510
 42
0.000000
  0
VERTEX
  8
0
 10
1227.893465
 20
929.850385
 42
0.048165
  0
VERTEX
  8
0
 10
1226.559801
 20
927.534646
 42
0.099462
  0
VERTEX
  8
0
 10
1226.089612
 20
925.508197
 42
0.114345
  0
VERTEX
  8
0
 10
1226.463369
 20
923.645071
 42
0.077626
  0
VERTEX
  8
0
 10
1227.654988
 20
921.828741
 42
0.093370
  0
VERTEX
  8
0
 10
1229.312484
 20
920.571232
 42
0.105434
  0
VERTEX
  8
0
 10
1231.244267
 20
920.072322
 42
0.104598
  0
VERTEX
  8
0
 10
1233.223671
 20
920.403523
 42
0.090581
  0
VERTEX
  8
0
 10
1235.016129
 20
921.514597
 42
-0.131982
  0
VERTEX
  8
0
 10
1236.099856
 20
922.069348
 42
-0.218327
  0
VERTEX
  8
0
 10
1237.084963
 20
921.849847
 42
-0.070920
  0
VERTEX
  8
0
 10
1238.326044
 20
920.595414
 42
-0.006685
  0
VERTEX
  8
0
 10
1240.866223
 20
917.075207
 42
0.022059
  0
VERTEX
  8
0
 10
1243.960662
 20
913.053446
 42
0.082108
  0
VERTEX
  8
0
 10
1246.381739
 20
910.984980
 42
0.139272
  0
VERTEX
  8
0
 10
1248.609881
 20
910.376935
 42
0.120843
  0
VERTEX
  8
0
 10
1250.962227
 20
910.979785
 42
-0.018594
  0
VERTEX
  8
0
 10
1251.744203
 20
911.361594
 42
-0.035537
  0
VERTEX
  8
0
 10
1252.401404
 20
911.598505
 42
-0.049653
  0
VERTEX
  8
0
 10
1252.863953
 20
911.680631
 42
-0.436800
  0
VERTEX
  8
0
 10
1253.000000
 20
911.554612
 42
-0.050037
  0
VERTEX
  8
0
 10
1252.959318
 20
911.149109
 42
-0.000131
  0
VERTEX
  8
0
 10
1251.833623
 20
905.602813
 42
-0.000814
  0
VERTEX
  8
0
 10
1250.551535
 20
899.346628
 42
-0.000507
  0
VERTEX
  8
0
 10
1249.029355
 20
892.017422
 42
-0.005613
  0
VERTEX
  8
0
 10
1247.031939
 20
882.958348
 42
-0.011010
  0
VERTEX
  8
0
 10
1245.203429
 20
875.805059
 42
-0.013722
  0
VERTEX
  8
0
 10
1243.451292
 20
870.135232
 42
-0.026854
  0
VERTEX
  8
0
 10
1241.694618
 20
865.747994
 42
-0.021670
  0
VERTEX
  8
0
 10
1237.605657
 20
857.853112
 42
-0.006589
  0
VERTEX
  8
0
 10
1230.743200
 20
846.257944
 42
-0.006236
  0
VERTEX
  8
0
 10
1222.291392
 20
832.778443
 42
-0.005025
  0
VERTEX
  8
0
 10
1212.884136
 20
818.500000
 42
0.007777
  0
VERTEX
  8
0
 10
1208.007039
 20
811.008063
 42
0.016407
  0
VERTEX
  8
0
 10
1204.508802
 20
805.019668
 42
0.018802
  0
VERTEX
  8
0
 10
1201.719806
 20
799.366117
 42
0.014426
  0
VERTEX
  8
0
 10
1199.089302
 20
793.000000
 42
-0.003111
  0
VERTEX
  8
0
 10
1197.360264
 20
788.531645
 42
-0.004570
  0
VERTEX
  8
0
 10
1195.780243
 20
784.627656
 42
-0.002232
  0
VERTEX
  8
0
 10
1194.394956
 20
781.334380
 42
-0.082074
  0
VERTEX
  8
0
 10
1193.958049
 20
780.647341
 42
-0.382650
  0
VERTEX
  8
0
 10
1192.014809
 20
780.433358
 42
-0.003418
  0
VERTEX
  8
0
 10
1179.112020
 20
789.803127
 42
-0.009298
  0
VERTEX
  8
0
 10
1167.254224
 20
798.883382
 42
-0.056809
  0
VERTEX
  8
0
 10
1161.809568
 20
804.330287
 42
-0.064854
  0
VERTEX
  8
0
 10
1153.770802
 20
817.675276
 42
-0.053176
  0
VERTEX
  8
0
 10
1148.746010
 20
833.558920
 42
-0.049305
  0
VERTEX
  8
0
 10
1146.933961
 20
851.331753
 42
-0.041022
  0
VERTEX
  8
0
 10
1148.432259
 20
870.276554
 42
-0.016943
  0
VERTEX
  8
0
 10
1150.051961
 20
878.485667
 42
-0.026777
  0
VERTEX
  8
0
 10
1152.049703
 20
885.375196
 42
-0.018873
  0
VERTEX
  8
0
 10
1155.241644
 20
893.519832
 42
-0.004483
  0
VERTEX
  8
0
 10
1161.188080
 20
906.827818
 42
0.006647
  0
VERTEX
  8
0
 10
1166.520360
 20
918.901391
 42
0.049762
  0
VERTEX
  8
0
 10
1168.386610
 20
924.867819
 42
0.137354
  0
VERTEX
  8
0
 10
1168.145203
 20
928.346142
 42
0.194432
  0
VERTEX
  8
0
 10
1166.107106
 20
930.640283
 42
0.148566
  0
VERTEX
  8
0
 10
1163.089101
 20
931.144012
 42
0.174834
  0
VERTEX
  8
0
 10
1160.526015
 20
929.823422
 42
0.070032
  0
VERTEX
  8
0
 10
1157.799062
 20
925.913678
 42
0.010241
  0
VERTEX
  8
0
 10
1153.591970
 20
917.175644
 42
0.004913
  0
VERTEX
  8
0
 10
1145.806461
 20
899.666833
 42
0.017958
  0
VERTEX
  8
0
 10
1141.383333
 20
888.352603
 42
0.027147
  0
VERTEX
  8
0
 10
1138.810004
 20
879.486257
 42
0.030376
  0
VERTEX
  8
0
 10
1137.327947
 20
870.718970
 42
-0.012462
  0
VERTEX
  8
0
 10
1137.029703
 20
868.466636
 42
-0.017705
  0
VERTEX
  8
0
 10
1136.644325
 20
866.483951
 42
-0.013844
  0
VERTEX
  8
0
 10
1136.229184
 20
864.891842
 42
-0.185709
  0
VERTEX
  8
0
 10
1135.870443
 20
864.419929
 42
-0.066144
  0
VERTEX
  8
0
 10
1135.233736
 20
864.134464
 42
-0.002049
  0
VERTEX
  8
0
 10
1132.476888
 20
863.325926
 42
-0.003983
  0
VERTEX
  8
0
 10
1129.210021
 20
862.410459
 42
-0.002743
  0
VERTEX
  8
0
 10
1125.494904
 20
861.423081
 42
0.024653
  0
VERTEX
  8
0
 10
1104.588539
 20
854.873926
 42
0.021371
  0
VERTEX
  8
0
 10
1083.383788
 20
846.018226
 42
0.021736
  0
VERTEX
  8
0
 10
1063.454947
 20
835.597183
 42
0.028947
  0
VERTEX
  8
0
 10
1046.400858
 20
824.346929
 42
0.024495
  0
VERTEX
  8
0
 10
1039.796679
 20
818.896186
 42
0.015568
  0
VERTEX
  8
0
 10
1032.637922
 20
811.952905
 42
0.015647
  0
VERTEX
  8
0
 10
1026.081160
 20
804.746789
 42
0.030217
  0
VERTEX
  8
0
 10
1021.385704
 20
798.525709
 42
-0.030277
  0
VERTEX
  8
0
 10
1018.504311
 20
794.709055
 42
-0.162113
  0
VERTEX
  8
0
 10
1016.301156
 20
793.381918
 42
-0.086151
  0
VERTEX
  8
0
 10
1013.089564
 20
793.224877
 42
-0.005216
  0
VERTEX
  8
0
 10
1003.500000
 20
794.512268
 42
0.016704
  0
VERTEX
  8
0
 10
998.152716
 20
795.105446
 42
0.006908
  0
VERTEX
  8
0
 10
990.887353
 20
795.565655
 42
0.006464
  0
VERTEX
  8
0
 10
982.609196
 20
795.868063
 42
0.005757
  0
VERTEX
  8
0
 10
974.000000
 20
795.972005
 42
0.016603
  0
VERTEX
  8
0
 10
943.443641
 20
794.974162
 42
0.048405
  0
VERTEX
  8
0
 10
922.638001
 20
791.561415
 42
0.067208
  0
VERTEX
  8
0
 10
907.001206
 20
785.069199
 42
0.064637
  0
VERTEX
  8
0
 10
893.415093
 20
774.593584
 42
0.048103
  0
VERTEX
  8
0
 10
882.925335
 20
761.850964
 42
0.051610
  0
VERTEX
  8
0
 10
875.346912
 20
747.624666
 42
0.048908
  0
VERTEX
  8
0
 10
870.552903
 20
731.477230
 42
0.036382
  0
VERTEX
  8
0
 10
868.359955
 20
713.000000
 42
0.008976
  0
VERTEX
  8
0
 10
868.183860
 20
706.586186
 42
0.014209
  0
VERTEX
  8
0
 10
868.287871
 20
701.088683
 42
0.015384
  0
VERTEX
  8
0
 10
868.690697
 20
695.941274
 42
0.013577
  0
VERTEX
  8
0
 10
869.420630
 20
690.607927
 42
-0.003164
  0
VERTEX
  8
0
 10
870.023694
 20
686.794436
 42
-0.005085
  0
VERTEX
  8
0
 10
870.484157
 20
683.535009
 42
-0.001273
  0
VERTEX
  8
0
 10
870.848482
 20
680.695907
 42
-0.231634
  0
VERTEX
  8
0
 10
870.754237
 20
680.420904
 42
-0.159198
  0
VERTEX
  8
0
 10
870.476232
 20
680.279808
 42
-0.000603
  0
VERTEX
  8
0
 10
866.880033
 20
679.726358
 42
-0.003022
  0
VERTEX
  8
0
 10
862.785054
 20
679.126502
 42
-0.001885
  0
VERTEX
  8
0
 10
857.979643
 20
678.470679
 42
-0.009108
  0
VERTEX
  8
0
 10
851.803267
 20
677.765685
 42
-0.012448
  0
VERTEX
  8
0
 10
846.217750
 20
677.371027
 42
-0.013499
  0
VERTEX
  8
0
 10
841.016021
 20
677.274012
 42
-0.015027
  0
VERTEX
  8
0
 10
836.000000
 20
677.466724
 42
-0.007211
  0
VERTEX
  8
0
 10
828.380852
 20
678.099599
 42
-0.006696
  0
VERTEX
  8
0
 10
820.592481
 20
678.965209
 42
-0.002210
  0
VERTEX
  8
0
 10
813.292047
 20
679.908504
 42
-0.164582
  0
VERTEX
  8
0
 10
812.236103
 20
680.430564
 42
-0.251749
  0
VERTEX
  8
0
 10
811.892855
 20
681.571850
 42
-0.000215
  0
VERTEX
  8
0
 10
817.857397
 20
710.766447
 42
-0.002314
  0
VERTEX
  8
0
 10
823.311222
 20
736.789279
 42
-0.009472
  0
VERTEX
  8
0
 10
826.992426
 20
752.500000
 42
-0.028830
  0
VERTEX
  8
0
 10
840.761982
 20
795.972161
 42
-0.033641
  0
VERTEX
  8
0
 10
858.879530
 20
835.305400
 42
-0.034435
  0
VERTEX
  8
0
 10
881.687496
 20
871.066125
 42
-0.033098
  0
VERTEX
  8
0
 10
909.467177
 20
903.863154
 42
-0.030397
  0
VERTEX
  8
0
 10
935.269110
 20
927.474176
 42
-0.036582
  0
VERTEX
  8
0
 10
962.264470
 20
946.228696
 42
-0.035700
  0
VERTEX
  8
0
 10
992.264651
 20
961.192557
 42
-0.026759
  0
VERTEX
  8
0
 10
1027.106019
 20
973.431287
 42
-0.013639
  0
VERTEX
  8
0
 10
1059.097068
 20
981.839707
 42
-0.015647
  0
VERTEX
  8
0
 10
1090.072470
 20
988.068950
 42
-0.015626
  0
VERTEX
  8
0
 10
1121.412743
 20
992.354980
 42
-0.013534
  0
VERTEX
  8
0
 10
1154.500000
 20
994.927680
 42
-0.003422
  0
VERTEX
  8
0
 10
1170.498072
 20
995.627052
 42
-0.021558
  0
VERTEX
  8
0
 10
1178.663108
 20
995.575889
 42
-0.042421
  0
VERTEX
  8
0
 10
1183.414049
 20
994.934617
 42
-0.194170
  0
SEQEND
  0
POLYLINE
  8
0
 66
1
 70
1
  0
VERTEX
  8
0
 10
1217.817182
 20
995.386564
 42
-0.064946
  0
VERTEX
  8
0
 10
1219.347836
 20
994.867222
 42
-0.055690
  0
VERTEX
  8
0
 10
1220.782935
 20
993.951250
 42
-0.047720
  0
VERTEX
  8
0
 10
1222.163643
 20
992.599737
 42
-0.029036
  0
VERTEX
  8
0
 10
1223.533262
 20
990.770373
 42
0.000000
  0
VERTEX
  8
0
 10
1226.182159
 20
986.767619
 42
0.000000
  0
VERTEX
  8
0
 10
1220.872236
 20
978.902654
 42
-0.009057
  0
VERTEX
  8
0
 10
1218.791993
 20
975.938655
 42
-0.015662
  0
VERTEX
  8
0
 10
1216.942770
 20
973.562799
 42
-0.009938
  0
VERTEX
  8
0
 10
1215.385824
 20
971.760865
 42
-0.456633
  0
VERTEX
  8
0
 10
1214.951819
 20
971.768844
 42
-0.015595
  0
VERTEX
  8
0
 10
1214.521886
 20
972.317672
 42
-0.000347
  0
VERTEX
  8
0
 10
1212.534436
 20
975.028477
 42
-0.000785
  0
VERTEX
  8
0
 10
1210.214952
 20
978.207227
 42
-0.000531
  0
VERTEX
  8
0
 10
1207.579715
 20
981.838739
 42
0.000000
  0
VERTEX
  8
0
 10
1200.818104
 20
991.177478
 42
0.000000
  0
VERTEX
  8
0
 10
1203.083366
 20
993.588739
 42
-0.114379
  0
VERTEX
  8
0
 10
1205.383019
 20
995.124622
 42
-0.059985
  0
VERTEX
  8
0
 10
1208.741455
 20
995.950922
 42
-0.048863
  0
VERTEX
  8
0
 10
1212.948891
 20
996.050959
 42
-0.030890
  0
SEQEND
  0
POLYLINE
  8
0
 66
1
 70
1
  0
VERTEX
  8
0
 10
1256.590369
 20
992.456457
 42
-0.128611
  0
VERTEX
  8
0
 10
1257.650744
 20
991.942226
 42
-0.021873
  0
VERTEX
  8
0
 10
1259.306408
 20
990.396429
 42
-0.022624
  0
VERTEX
  8
0
 10
1261.131999
 20
988.359438
 42
-0.018446
  0
VERTEX
  8
0
 10
1262.901047
 20
986.025563
 42
0.000000
  0
VERTEX
  8
0
 10
1267.121355
 20
980.009100
 42
0.000000
  0
VERTEX
  8
0
 10
1261.461112
 20
972.754550
 42
-0.003821
  0
VERTEX
  8
0
 10
1259.244805
 20
969.958307
 42
-0.005808
  0
VERTEX
  8
0
 10
1257.272501
 20
967.566030
 42
-0.002403
  0
VERTEX
  8
0
 10
1255.556634
 20
965.553071
 42
-0.133843
  0
VERTEX
  8
0
 10
1255.150435
 20
965.278742
 42
-0.321345
  0
VERTEX
  8
0
 10
1254.742916
 20
965.402108
 42
-0.002428
  0
VERTEX
  8
0
 10
1252.515662
 20
968.331060
 42
-0.007668
  0
VERTEX
  8
0
 10
1249.980465
 20
971.808520
 42
-0.004702
  0
VERTEX
  8
0
 10
1247.094374
 20
975.980314
 42
0.000000
  0
VERTEX
  8
0
 10
1239.688747
 20
986.903145
 42
0.000000
  0
VERTEX
  8
0
 10
1242.377238
 20
990.427937
 42
-0.022385
  0
VERTEX
  8
0
 10
1244.116800
 20
992.508519
 42
-0.112128
  0
VERTEX
  8
0
 10
1245.357144
 20
993.368688
 42
-0.105814
  0
VERTEX
  8
0
 10
1246.882248
 20
993.633903
 42
-0.018879
  0
VERTEX
  8
0
 10
1249.782864
 20
993.411809
 42
-0.003229
  0
VERTEX
  8
0
 10
1251.742152
 20
993.174305
 42
-0.003085
  0
VERTEX
  8
0
 10
1253.728387
 20
992.908044
 42
-0.003057
  0
VERTEX
  8
0
 10
1255.479285
 20
992.651402
 42
-0.011017
  0
SEQEND
  0
POLYLINE
  8
0
 66
1
 70
1
  0
VERTEX
  8
0
 10
1296.337968
 20
986.499829
 42
0.000727
  0
VERTEX
  8
0
 10
1299.366203
 20
985.924929
 42
0.001142
  0
VERTEX
  8
0
 10
1301.970609
 20
985.440575
 42
0.000278
  0
VERTEX
  8
0
 10
1304.251697
 20
985.023048
 42
0.045150
  0
VERTEX
  8
0
 10
1304.506409
 20
985.000000
 42
-0.237775
  0
VERTEX
  8
0
 10
1304.699039
 20
984.902905
 42
-0.004535
  0
VERTEX
  8
0
 10
1305.376663
 20
983.969542
 42
-0.009956
  0
VERTEX
  8
0
 10
1306.150045
 20
982.836621
 42
-0.006374
  0
VERTEX
  8
0
 10
1307.004909
 20
981.492057
 42
0.000000
  0
VERTEX
  8
0
 10
1309.172937
 20
977.984115
 42
0.000000
  0
VERTEX
  8
0
 10
1305.171812
 20
973.242057
 42
-0.007212
  0
VERTEX
  8
0
 10
1303.353728
 20
971.149305
 42
-0.004647
  0
VERTEX
  8
0
 10
1301.189652
 20
968.774477
 42
-0.004671
  0
VERTEX
  8
0
 10
1299.029235
 20
966.490641
 42
-0.008766
  0
VERTEX
  8
0
 10
1297.234125
 20
964.692334
 42
0.000000
  0
VERTEX
  8
0
 10
1293.297564
 20
960.884668
 42
0.000000
  0
VERTEX
  8
0
 10
1287.148782
 20
969.862129
 42
-0.003100
  0
VERTEX
  8
0
 10
1284.792060
 20
973.349206
 42
-0.004809
  0
VERTEX
  8
0
 10
1282.806205
 20
976.390121
 42
-0.001619
  0
VERTEX
  8
0
 10
1281.128938
 20
979.032072
 42
-0.141539
  0
VERTEX
  8
0
 10
1281.000000
 20
979.478434
 42
-0.166942
  0
VERTEX
  8
0
 10
1281.351438
 20
980.501674
 42
-0.005052
  0
VERTEX
  8
0
 10
1284.189481
 20
984.070914
 42
-0.004213
  0
VERTEX
  8
0
 10
1287.132073
 20
987.634066
 42
-0.221616
  0
VERTEX
  8
0
 10
1287.917365
 20
987.999829
 42
-0.043258
  0
VERTEX
  8
0
 10
1288.346573
 20
987.962499
 42
-0.000767
  0
VERTEX
  8
0
 10
1290.631254
 20
987.559133
 42
-0.001918
  0
VERTEX
  8
0
 10
1293.292120
 20
987.074601
 42
-0.001278
  0
SEQEND
  0
POLYLINE
  8
0
 66
1
 70
1
  0
VERTEX
  8
0
 10
1352.109212
 20
975.782599
 42
-0.504423
  0
VERTEX
  8
0
 10
1352.219126
 20
975.425694
 42
-0.004672
  0
VERTEX
  8
0
 10
1350.292990
 20
972.865278
 42
-0.010442
  0
VERTEX
  8
0
 10
1347.852004
 20
969.816809
 42
-0.006034
  0
VERTEX
  8
0
 10
1344.796180
 20
966.248134
 42
0.000000
  0
VERTEX
  8
0
 10
1336.678345
 20
956.996269
 42
0.000000
  0
VERTEX
  8
0
 10
1330.339173
 20
966.475837
 42
-0.003158
  0
VERTEX
  8
0
 10
1327.909520
 20
970.159267
 42
-0.004884
  0
VERTEX
  8
0
 10
1325.862132
 20
973.374515
 42
-0.001696
  0
VERTEX
  8
0
 10
1324.136894
 20
976.164214
 42
-0.138493
  0
VERTEX
  8
0
 10
1324.000000
 20
976.648962
 42
-0.121017
  0
VERTEX
  8
0
 10
1324.090816
 20
977.018689
 42
-0.022060
  0
VERTEX
  8
0
 10
1324.447444
 20
977.633207
 42
-0.022592
  0
VERTEX
  8
0
 10
1324.940061
 20
978.330396
 42
-0.018818
  0
VERTEX
  8
0
 10
1325.523215
 20
979.025653
 42
-0.132265
  0
VERTEX
  8
0
 10
1326.842930
 20
979.875704
 42
-0.089229
  0
VERTEX
  8
0
 10
1328.628449
 20
980.111388
 42
-0.032463
  0
VERTEX
  8
0
 10
1331.730936
 20
979.763551
 42
-0.003146
  0
VERTEX
  8
0
 10
1339.175419
 20
978.386992
 42
-0.000954
  0
VERTEX
  8
0
 10
1343.881853
 20
977.476754
 42
-0.001439
  0
VERTEX
  8
0
 10
1347.977928
 20
976.664211
 42
-0.000549
  0
VERTEX
  8
0
 10
1351.496877
 20
975.951603
 42
-0.034210
  0
SEQEND
  0
POLYLINE
  8
0
 66
1
 70
1
  0
VERTEX
  8
0
 10
1240.762989
 20
965.708608
 42
0.000000
  0
VERTEX
  8
0
 10
1247.832223
 20
955.417215
 42
0.000000
  0
VERTEX
  8
0
 10
1242.813305
 20
948.958608
 42
-0.007464
  0
VERTEX
  8
0
 10
1240.829961
 20
946.483499
 42
-0.011316
  0
VERTEX
  8
0
 10
1239.025453
 20
944.397216
 42
-0.006175
  0
VERTEX
  8
0
 10
1237.462137
 20
942.712656
 42
-0.205408
  0
VERTEX
  8
0
 10
1236.966334
 20
942.500000
 42
-0.234673
  0
VERTEX
  8
0
 10
1236.037374
 20
942.961414
 42
-0.001424
  0
VERTEX
  8
0
 10
1230.180600
 20
950.730884
 42
-0.003882
  0
VERTEX
  8
0
 10
1224.789541
 20
958.042694
 42
-0.061033
  0
VERTEX
  8
0
 10
1223.290923
 20
960.749425
 42
-0.236841
  0
VERTEX
  8
0
 10
1223.418247
 20
962.310648
 42
-0.005382
  0
VERTEX
  8
0
 10
1227.486144
 20
968.838864
 42
-0.005224
  0
VERTEX
  8
0
 10
1231.700316
 20
975.292685
 42
-0.250524
  0
VERTEX
  8
0
 10
1233.023389
 20
976.000000
 42
-0.233514
  0
VERTEX
  8
0
 10
1233.433847
 20
975.797249
 42
-0.002093
  0
VERTEX
  8
0
 10
1235.573422
 20
972.976903
 42
-0.006591
  0
VERTEX
  8
0
 10
1238.004728
 20
969.653682
 42
-0.004140
  0
SEQEND
  0
POLYLINE
  8
0
 66
1
 70
1
  0
VERTEX
  8
0
 10
1379.355655
 20
970.439454
 42
-0.000339
  0
VERTEX
  8
0
 10
1381.984471
 20
969.769889
 42
-0.000275
  0
VERTEX
  8
0
 10
1384.803218
 20
969.048266
 42
-0.000277
  0
VERTEX
  8
0
 10
1387.401471
 20
968.380034
 42
-0.000720
  0
VERTEX
  8
0
 10
1389.272322
 20
967.894899
 42
0.000000
  0
VERTEX
  8
0
 10
1393.044644
 20
966.910890
 42
0.000000
  0
VERTEX
  8
0
 10
1387.272322
 20
960.456001
 42
-0.004152
  0
VERTEX
  8
0
 10
1385.022462
 20
957.981758
 42
-0.006519
  0
VERTEX
  8
0
 10
1383.043936
 20
955.897072
 42
-0.002257
  0
VERTEX
  8
0
 10
1381.315943
 20
954.139204
 42
-0.199687
  0
VERTEX
  8
0
 10
1380.983631
 20
954.000556
 42
-0.253696
  0
VERTEX
  8
0
 10
1380.497405
 20
954.263557
 42
-0.003947
  0
VERTEX
  8
0
 10
1378.727960
 20
957.023162
 42
-0.006410
  0
VERTEX
  8
0
 10
1376.219044
 20
961.120391
 42
-0.001396
  0
VERTEX
  8
0
 10
1372.004884
 20
968.250000
 42
-0.037513
  0
VERTEX
  8
0
 10
1370.666166
 20
970.979071
 42
-0.441297
  0
VERTEX
  8
0
 10
1371.124933
 20
971.928491
 42
-0.129743
  0
VERTEX
  8
0
 10
1372.969228
 20
971.986499
 42
-0.005530
  0
SEQEND
  0
POLYLINE
  8
0
 66
1
 70
1
  0
VERTEX
  8
0
 10
1280.363010
 20
960.312860
 42
0.000000
  0
VERTEX
  8
0
 10
1286.049156
 20
952.125721
 42
0.000000
  0
VERTEX
  8
0
 10
1279.909922
 20
945.562860
 42
-0.005606
  0
VERTEX
  8
0
 10
1277.503609
 20
943.047632
 42
-0.008587
  0
VERTEX
  8
0
 10
1275.357116
 20
940.927840
 42
-0.003919
  0
VERTEX
  8
0
 10
1273.499657
 20
939.183058
 42
-0.188768
  0
VERTEX
  8
0
 10
1273.032060
 20
939.000000
 42
-0.241368
  0
VERTEX
  8
0
 10
1272.326207
 20
939.361820
 42
-0.001304
  0
VERTEX
  8
0
 10
1267.732612
 20
945.784883
 42
-0.004274
  0
VERTEX
  8
0
 10
1263.562832
 20
951.754970
 42
-0.047224
  0
VERTEX
  8
0
 10
1262.149902
 20
954.300293
 42
-0.271606
  0
VERTEX
  8
0
 10
1262.331175
 20
955.828886
 42
-0.004865
  0
VERTEX
  8
0
 10
1267.570791
 20
962.605456
 42
-0.004480
  0
VERTEX
  8
0
 10
1272.941988
 20
969.290197
 42
-0.466162
  0
VERTEX
  8
0
 10
1273.985155
 20
969.303277
 42
-0.022692
  0
VERTEX
  8
0
 10
1274.448574
 20
968.712939
 42
-0.000786
  0
VERTEX
  8
0
 10
1276.143979
 20
966.330990
 42
-0.001468
  0
VERTEX
  8
0
 10
1278.134225
 20
963.507954
 42
-0.001025
  0
SEQEND
  0
POLYLINE
  8
0
 66
1
 70
1
  0
VERTEX
  8
0
 10
1322.437874
 20
958.328240
 42
0.000000
  0
VERTEX
  8
0
 10
1328.905569
 20
948.656479
 42
0.000000
  0
VERTEX
  8
0
 10
1325.808495
 20
945.078240
 42
-0.005551
  0
VERTEX
  8
0
 10
1320.784665
 20
939.402482
 42
-0.013767
  0
VERTEX
  8
0
 10
1316.947689
 20
935.391083
 42
-0.009582
  0
VERTEX
  8
0
 10
1313.962753
 20
932.548799
 42
-0.335649
  0
VERTEX
  8
0
 10
1313.059036
 20
932.463514
 42
-0.093881
  0
VERTEX
  8
0
 10
1312.551596
 20
932.927586
 42
-0.002313
  0
VERTEX
  8
0
 10
1310.664516
 20
935.471853
 42
-0.004928
  0
VERTEX
  8
0
 10
1308.486679
 20
938.498780
 42
-0.003325
  0
VERTEX
  8
0
 10
1306.059269
 20
941.992821
 42
0.000000
  0
VERTEX
  8
0
 10
1299.879718
 20
951.015207
 42
0.000000
  0
VERTEX
  8
0
 10
1307.652050
 20
959.507603
 42
-0.001637
  0
VERTEX
  8
0
 10
1310.651549
 20
962.763519
 42
-0.002665
  0
VERTEX
  8
0
 10
1313.221424
 20
965.505358
 42
-0.000388
  0
VERTEX
  8
0
 10
1315.513567
 20
967.921146
 42
-0.205543
  0
VERTEX
  8
0
 10
1315.697281
 20
968.000000
 42
-0.244823
  0
VERTEX
  8
0
 10
1315.868458
 20
967.910840
 42
-0.000432
  0
VERTEX
  8
0
 10
1317.789901
 20
965.158920
 42
-0.002985
  0
VERTEX
  8
0
 10
1319.938504
 20
962.036412
 42
-0.001826
  0
SEQEND
  0
POLYLINE
  8
0
 66
1
 70
1
  0
VERTEX
  8
0
 10
1366.748833
 20
955.394048
 42
0.000000
  0
VERTEX
  8
0
 10
1372.997666
 20
944.842258
 42
0.000000
  0
VERTEX
  8
0
 10
1365.248833
 20
936.532290
 42
-0.003797
  0
VERTEX
  8
0
 10
1362.225773
 20
933.339272
 42
-0.005864
  0
VERTEX
  8
0
 10
1359.560287
 20
930.630722
 42
-0.002179
  0
VERTEX
  8
0
 10
1357.239685
 20
928.347290
 42
-0.156991
  0
VERTEX
  8
0
 10
1356.764910
 20
928.111161
 42
-0.272030
  0
VERTEX
  8
0
 10
1356.319097
 20
928.289805
 42
-0.003243
  0
VERTEX
  8
0
 10
1354.340031
 20
930.882462
 42
-0.008623
  0
VERTEX
  8
0
 10
1352.082240
 20
933.990492
 42
-0.005396
  0
VERTEX
  8
0
 10
1349.542255
 20
937.701475
 42
-0.005185
  0
VERTEX
  8
0
 10
1346.021492
 20
943.086428
 42
-0.033969
  0
VERTEX
  8
0
 10
1344.472649
 20
945.916384
 42
-0.079371
  0
VERTEX
  8
0
 10
1343.971010
 20
947.698072
 42
-0.205386
  0
VERTEX
  8
0
 10
1344.343811
 20
948.951475
 42
-0.007425
  0
VERTEX
  8
0
 10
1348.587287
 20
953.897599
 42
-0.004278
  0
VERTEX
  8
0
 10
1353.835015
 20
959.732210
 42
-0.000681
  0
VERTEX
  8
0
 10
1359.344181
 20
965.736620
 42
-0.221933
  0
VERTEX
  8
0
 10
1359.918655
 20
965.972919
 42
-0.240531
  0
VERTEX
  8
0
 10
1360.264805
 20
965.775350
 42
-0.001688
  0
VERTEX
  8
0
 10
1362.164825
 20
962.854205
 42
-0.005948
  0
VERTEX
  8
0
 10
1364.311409
 20
959.441062
 42
-0.003712
  0
SEQEND
  0
POLYLINE
  8
0
 66
1
 70
1
  0
VERTEX
  8
0
 10
1419.276932
 20
956.729038
 42
-0.006991
  0
VERTEX
  8
0
 10
1423.388435
 20
954.725099
 42
-0.011461
  0
VERTEX
  8
0
 10
1426.805051
 20
952.900887
 42
-0.005193
  0
VERTEX
  8
0
 10
1429.592422
 20
951.291135
 42
-0.353298
  0
VERTEX
  8
0
 10
1429.771006
 20
950.813018
 42
-0.099204
  0
VERTEX
  8
0
 10
1428.962312
 20
949.399002
 42
-0.000344
  0
VERTEX
  8
0
 10
1415.995264
 20
934.553484
 42
-0.000199
  0
VERTEX
  8
0
 10
1402.803654
 20
919.483959
 42
-0.185567
  0
VERTEX
  8
0
 10
1401.996764
 20
919.059369
 42
-0.285040
  0
VERTEX
  8
0
 10
1401.691707
 20
919.202210
 42
-0.001103
  0
VERTEX
  8
0
 10
1399.511335
 20
922.564390
 42
-0.005007
  0
VERTEX
  8
0
 10
1397.058668
 20
926.449629
 42
-0.003071
  0
VERTEX
  8
0
 10
1394.242399
 20
931.074725
 42
-0.007980
  0
VERTEX
  8
0
 10
1388.872941
 20
940.348221
 42
-0.157451
  0
VERTEX
  8
0
 10
1388.238304
 20
943.535470
 42
-0.151916
  0
VERTEX
  8
0
 10
1389.568733
 20
946.536259
 42
-0.007278
  0
VERTEX
  8
0
 10
1397.000000
 20
954.783491
 42
-0.007414
  0
VERTEX
  8
0
 10
1400.836811
 20
958.797860
 42
-0.030450
  0
VERTEX
  8
0
 10
1403.338536
 20
961.047078
 42
-0.052586
  0
VERTEX
  8
0
 10
1405.145792
 20
962.196170
 42
-0.182698
  0
VERTEX
  8
0
 10
1406.500000
 20
962.331850
 42
-0.035202
  0
VERTEX
  8
0
 10
1407.772469
 20
961.893255
 42
-0.002739
  0
VERTEX
  8
0
 10
1411.078224
 20
960.465184
 42
-0.003729
  0
VERTEX
  8
0
 10
1415.003456
 20
958.708913
 42
-0.002840
  0
SEQEND
  0
POLYLINE
  8
0
 66
1
 70
1
  0
VERTEX
  8
0
 10
1455.490549
 20
939.267162
 42
-0.003664
  0
VERTEX
  8
0
 10
1460.669741
 20
936.638405
 42
-0.005928
  0
VERTEX
  8
0
 10
1465.031599
 20
934.318210
 42
-0.001569
  0
VERTEX
  8
0
 10
1468.776958
 20
932.253308
 42
-0.272403
  0
VERTEX
  8
0
 10
1469.000000
 20
931.874289
 42
-0.220719
  0
VERTEX
  8
0
 10
1468.807600
 20
931.459674
 42
-0.001908
  0
VERTEX
  8
0
 10
1466.059354
 20
929.154079
 42
-0.006172
  0
VERTEX
  8
0
 10
1462.826728
 20
926.529948
 42
-0.003885
  0
VERTEX
  8
0
 10
1458.989289
 20
923.540860
 42
0.013822
  0
VERTEX
  8
0
 10
1450.317942
 20
916.505233
 42
0.017740
  0
VERTEX
  8
0
 10
1442.764848
 20
909.542486
 42
0.018031
  0
VERTEX
  8
0
 10
1435.823538
 20
902.158566
 42
0.015123
  0
VERTEX
  8
0
 10
1428.997178
 20
893.857324
 42
-0.002938
  0
VERTEX
  8
0
 10
1424.420189
 20
888.006488
 42
-0.057438
  0
VERTEX
  8
0
 10
1422.803901
 20
886.387188
 42
-0.285420
  0
VERTEX
  8
0
 10
1421.718398
 20
886.261224
 42
-0.141705
  0
VERTEX
  8
0
 10
1420.637730
 20
887.212999
 42
-0.006004
  0
VERTEX
  8
0
 10
1415.209958
 20
895.963708
 42
-0.013043
  0
VERTEX
  8
0
 10
1411.301225
 20
902.836667
 42
-0.008464
  0
VERTEX
  8
0
 10
1408.530087
 20
908.237300
 42
-0.274276
  0
VERTEX
  8
0
 10
1408.640844
 20
909.650197
 42
-0.028762
  0
VERTEX
  8
0
 10
1411.700714
 20
913.503529
 42
-0.000849
  0
VERTEX
  8
0
 10
1425.510302
 20
928.924467
 42
-0.000159
  0
VERTEX
  8
0
 10
1440.436416
 20
945.524791
 42
-0.188026
  0
VERTEX
  8
0
 10
1441.240549
 20
945.929652
 42
-0.132688
  0
VERTEX
  8
0
 10
1441.784042
 20
945.836847
 42
-0.001097
  0
VERTEX
  8
0
 10
1445.731963
 20
944.001564
 42
-0.003816
  0
VERTEX
  8
0
 10
1450.258833
 20
941.842809
 42
-0.002435
  0
SEQEND
  0
POLYLINE
  8
0
 66
1
 70
1
  0
VERTEX
  8
0
 10
1260.053185
 20
937.421183
 42
-0.009063
  0
VERTEX
  8
0
 10
1263.766235
 20
931.697618
 42
-0.175179
  0
VERTEX
  8
0
 10
1264.201414
 20
929.661070
 42
-0.142980
  0
VERTEX
  8
0
 10
1263.303066
 20
927.651335
 42
-0.005406
  0
VERTEX
  8
0
 10
1257.852253
 20
921.376028
 42
0.000000
  0
VERTEX
  8
0
 10
1254.191146
 20
917.252055
 42
0.000000
  0
VERTEX
  8
0
 10
1249.006175
 20
924.678252
 42
0.000000
  0
VERTEX
  8
0
 10
1243.821204
 20
932.104449
 42
0.000000
  0
VERTEX
  8
0
 10
1248.660602
 20
938.527319
 42
-0.006501
  0
VERTEX
  8
0
 10
1250.567356
 20
940.990672
 42
-0.009947
  0
VERTEX
  8
0
 10
1252.289788
 20
943.070788
 42
-0.004906
  0
VERTEX
  8
0
 10
1253.786480
 20
944.772739
 42
-0.204030
  0
VERTEX
  8
0
 10
1254.219526
 20
944.975095
 42
-0.236859
  0
VERTEX
  8
0
 10
1254.647907
 20
944.778347
 42
-0.004376
  0
VERTEX
  8
0
 10
1256.229968
 20
942.766407
 42
-0.009757
  0
VERTEX
  8
0
 10
1258.040989
 20
940.324290
 42
-0.006242
  0
SEQEND
  0
POLYLINE
  8
0
 66
1
 70
1
  0
VERTEX
  8
0
 10
1299.410611
 20
932.136329
 42
0.000000
  0
VERTEX
  8
0
 10
1305.888860
 20
922.772658
 42
0.000000
  0
VERTEX
  8
0
 10
1298.444430
 20
914.405360
 42
0.015708
  0
VERTEX
  8
0
 10
1293.425012
 20
908.393634
 42
0.081707
  0
VERTEX
  8
0
 10
1291.355903
 20
904.617106
 42
0.179483
  0
VERTEX
  8
0
 10
1291.402605
 20
901.872834
 42
0.147962
  0
VERTEX
  8
0
 10
1293.222506
 20
899.556704
 42
0.025966
  0
VERTEX
  8
0
 10
1294.174763
 20
898.960890
 42
0.024836
  0
VERTEX
  8
0
 10
1295.197624
 20
898.457282
 42
0.025653
  0
VERTEX
  8
0
 10
1296.143869
 20
898.104829
 42
0.076464
  0
VERTEX
  8
0
 10
1296.825344
 20
898.000000
 42
0.173364
  0
VERTEX
  8
0
 10
1297.655665
 20
898.296815
 42
0.008609
  0
VERTEX
  8
0
 10
1299.899682
 20
900.201728
 42
0.013042
  0
VERTEX
  8
0
 10
1302.514228
 20
902.623524
 42
0.008985
  0
VERTEX
  8
0
 10
1305.352838
 20
905.495243
 42
0.000000
  0
VERTEX
  8
0
 10
1312.500000
 20
912.990487
 42
0.000000
  0
VERTEX
  8
0
 10
1318.901047
 20
903.533635
 42
0.000000
  0
VERTEX
  8
0
 10
1325.302093
 20
894.076783
 42
0.000000
  0
VERTEX
  8
0
 10
1321.728083
 20
890.120781
 42
0.024163
  0
VERTEX
  8
0
 10
1317.187482
 20
884.578702
 42
0.105251
  0
VERTEX
  8
0
 10
1315.434868
 20
880.740527
 42
0.208729
  0
VERTEX
  8
0
 10
1315.981220
 20
877.943831
 42
0.135519
  0
VERTEX
  8
0
 10
1318.545771
 20
875.797192
 42
0.186860
  0
VERTEX
  8
0
 10
1321.301649
 20
875.636985
 42
0.093852
  0
VERTEX
  8
0
 10
1324.410383
 20
877.329432
 42
0.031733
  0
VERTEX
  8
0
 10
1329.200227
 20
881.784008
 42
0.003043
  0
VERTEX
  8
0
 10
1340.087763
 20
893.421460
 42
-0.001954
  0
VERTEX
  8
0
 10
1345.651043
 20
899.393959
 42
-0.003165
  0
VERTEX
  8
0
 10
1350.433351
 20
904.423804
 42
-0.000549
  0
VERTEX
  8
0
 10
1354.683966
 20
908.828463
 42
-0.203256
  0
VERTEX
  8
0
 10
1355.088506
 20
909.000000
 42
-0.250817
  0
VERTEX
  8
0
 10
1356.041958
 20
908.489607
 42
-0.000897
  0
VERTEX
  8
0
 10
1363.366486
 20
897.455243
 42
-0.001338
  0
VERTEX
  8
0
 10
1370.506076
 20
886.594420
 42
-0.145735
  0
VERTEX
  8
0
 10
1371.000000
 20
884.935811
 42
-0.176364
  0
VERTEX
  8
0
 10
1370.730156
 20
884.194586
 42
-0.000944
  0
VERTEX
  8
0
 10
1365.718575
 20
878.246592
 42
-0.003960
  0
VERTEX
  8
0
 10
1359.912935
 20
871.491743
 42
-0.002484
  0
VERTEX
  8
0
 10
1353.020682
 20
863.678613
 42
0.002982
  0
VERTEX
  8
0
 10
1344.104698
 20
853.551041
 42
0.012207
  0
VERTEX
  8
0
 10
1338.883612
 20
847.244131
 42
0.014971
  0
VERTEX
  8
0
 10
1335.689795
 20
842.928707
 42
0.150999
  0
VERTEX
  8
0
 10
1335.020682
 20
840.821429
 42
0.089244
  0
VERTEX
  8
0
 10
1335.401186
 20
838.608693
 42
0.094654
  0
VERTEX
  8
0
 10
1336.526906
 20
836.718118
 42
0.099888
  0
VERTEX
  8
0
 10
1338.210984
 20
835.448796
 42
0.112157
  0
VERTEX
  8
0
 10
1340.186558
 20
835.000000
 42
0.162292
  0
VERTEX
  8
0
 10
1342.152362
 20
835.655329
 42
0.038471
  0
VERTEX
  8
0
 10
1344.784420
 20
837.965965
 42
0.012397
  0
VERTEX
  8
0
 10
1349.392337
 20
842.925723
 42
0.000728
  0
VERTEX
  8
0
 10
1363.000000
 20
858.366007
 42
-0.001586
  0
VERTEX
  8
0
 10
1368.595222
 20
864.692856
 42
-0.002585
  0
VERTEX
  8
0
 10
1373.387500
 20
870.021527
 42
-0.000362
  0
VERTEX
  8
0
 10
1377.665974
 20
874.722859
 42
-0.208216
  0
VERTEX
  8
0
 10
1378.000000
 20
874.872493
 42
-0.217269
  0
VERTEX
  8
0
 10
1378.296684
 20
874.740965
 42
-0.005957
  0
VERTEX
  8
0
 10
1379.245137
 20
873.645747
 42
-0.011268
  0
VERTEX
  8
0
 10
1380.336677
 20
872.293885
 42
-0.007366
  0
VERTEX
  8
0
 10
1381.536636
 20
870.688896
 42
0.047473
  0
VERTEX
  8
0
 10
1384.051012
 20
867.834414
 42
0.110049
  0
VERTEX
  8
0
 10
1386.493754
 20
866.388129
 42
0.148118
  0
VERTEX
  8
0
 10
1388.841643
 20
866.338210
 42
0.116200
  0
VERTEX
  8
0
 10
1391.082465
 20
867.574630
 42
0.102578
  0
VERTEX
  8
0
 10
1392.510167
 20
869.529512
 42
0.146316
  0
VERTEX
  8
0
 10
1392.799272
 20
871.645654
 42
0.087210
  0
VERTEX
  8
0
 10
1391.869249
 20
874.371760
 42
0.020847
  0
VERTEX
  8
0
 10
1389.380432
 20
878.482232
 42
0.000000
  0
VERTEX
  8
0
 10
1385.760864
 20
883.933695
 42
0.000000
  0
VERTEX
  8
0
 10
1392.503001
 20
891.466848
 42
-0.004346
  0
VERTEX
  8
0
 10
1395.132819
 20
894.354309
 42
-0.006804
  0
VERTEX
  8
0
 10
1397.449894
 20
896.787136
 42
-0.002452
  0
VERTEX
  8
0
 10
1399.471105
 20
898.832143
 42
-0.199159
  0
VERTEX
  8
0
 10
1399.875805
 20
899.000000
 42
-0.251732
  0
VERTEX
  8
0
 10
1400.253649
 20
898.796898
 42
-0.001547
  0
VERTEX
  8
0
 10
1402.459052
 20
895.440029
 42
-0.005763
  0
VERTEX
  8
0
 10
1404.948740
 20
891.526955
 42
-0.003580
  0
VERTEX
  8
0
 10
1407.784219
 20
886.880950
 42
0.000000
  0
VERTEX
  8
0
 10
1415.061967
 20
874.761899
 42
0.000000
  0
VERTEX
  8
0
 10
1408.177149
 20
864.130950
 42
0.008931
  0
VERTEX
  8
0
 10
1404.670708
 20
858.498603
 42
0.002615
  0
VERTEX
  8
0
 10
1399.482716
 20
849.719716
 42
0.002626
  0
VERTEX
  8
0
 10
1393.746551
 20
839.776773
 42
0.002814
  0
VERTEX
  8
0
 10
1388.247121
 20
830.000000
 42
-0.000505
  0
VERTEX
  8
0
 10
1377.342620
 20
810.402977
 42
-0.003847
  0
VERTEX
  8
0
 10
1372.130518
 20
801.224960
 42
-0.002211
  0
VERTEX
  8
0
 10
1368.736049
 20
795.412759
 42
-0.265428
  0
VERTEX
  8
0
 10
1368.013295
 20
795.000000
 42
-0.218786
  0
VERTEX
  8
0
 10
1367.665592
 20
795.159794
 42
-0.003140
  0
VERTEX
  8
0
 10
1366.152955
 20
796.944953
 42
-0.007992
  0
VERTEX
  8
0
 10
1364.421380
 20
799.083243
 42
-0.005103
  0
VERTEX
  8
0
 10
1362.474011
 20
801.621117
 42
0.059644
  0
VERTEX
  8
0
 10
1345.335883
 20
819.528966
 42
0.038576
  0
VERTEX
  8
0
 10
1321.810204
 20
836.009890
 42
0.036245
  0
VERTEX
  8
0
 10
1294.137047
 20
849.773018
 42
0.035209
  0
VERTEX
  8
0
 10
1264.500000
 20
859.550853
 42
-0.001098
  0
VERTEX
  8
0
 10
1260.261585
 20
860.635278
 42
-0.001751
  0
VERTEX
  8
0
 10
1256.643141
 20
861.583083
 42
-0.000340
  0
VERTEX
  8
0
 10
1253.458138
 20
862.431603
 42
-0.089632
  0
VERTEX
  8
0
 10
1253.200053
 20
862.553051
 42
-0.310649
  0
VERTEX
  8
0
 10
1253.121716
 20
862.767801
 42
-0.003096
  0
VERTEX
  8
0
 10
1253.561027
 20
864.427191
 42
-0.008643
  0
VERTEX
  8
0
 10
1254.124127
 20
866.368735
 42
-0.005332
  0
VERTEX
  8
0
 10
1254.850101
 20
868.633280
 42
0.019083
  0
VERTEX
  8
0
 10
1255.832482
 20
872.014797
 42
0.003577
  0
VERTEX
  8
0
 10
1257.349391
 20
878.283526
 42
0.003823
  0
VERTEX
  8
0
 10
1259.014529
 20
885.639379
 42
0.003490
  0
VERTEX
  8
0
 10
1260.620032
 20
893.246809
 42
-0.002964
  0
VERTEX
  8
0
 10
1263.031904
 20
904.734874
 42
-0.024978
  0
VERTEX
  8
0
 10
1264.406096
 20
909.842680
 42
-0.053123
  0
VERTEX
  8
0
 10
1265.861894
 20
913.112204
 42
-0.046519
  0
VERTEX
  8
0
 10
1268.030336
 20
916.162345
 42
0.000000
  0
VERTEX
  8
0
 10
1271.620704
 20
920.331072
 42
0.000000
  0
VERTEX
  8
0
 10
1276.090460
 20
913.915536
 42
0.023972
  0
VERTEX
  8
0
 10
1279.300968
 20
909.748373
 42
0.091656
  0
VERTEX
  8
0
 10
1281.831796
 20
907.686630
 42
0.147199
  0
VERTEX
  8
0
 10
1284.251490
 20
907.174659
 42
0.102256
  0
VERTEX
  8
0
 10
1286.948415
 20
907.972393
 42
0.179711
  0
VERTEX
  8
0
 10
1288.567590
 20
909.804519
 42
0.138572
  0
VERTEX
  8
0
 10
1288.816556
 20
912.480836
 42
0.077076
  0
VERTEX
  8
0
 10
1287.511196
 20
916.212776
 42
0.025147
  0
VERTEX
  8
0
 10
1284.500000
 20
921.229277
 42
-0.003868
  0
VERTEX
  8
0
 10
1282.775415
 20
923.843522
 42
-0.005885
  0
VERTEX
  8
0
 10
1281.321875
 20
926.143267
 42
-0.002429
  0
VERTEX
  8
0
 10
1280.114680
 20
928.125481
 42
-0.136377
  0
VERTEX
  8
0
 10
1280.000000
 20
928.538113
 42
-0.185847
  0
VERTEX
  8
0
 10
1280.481889
 20
929.789799
 42
-0.002820
  0
VERTEX
  8
0
 10
1285.829580
 20
935.638933
 42
-0.002131
  0
VERTEX
  8
0
 10
1291.324361
 20
941.530741
 42
-0.295990
  0
VERTEX
  8
0
 10
1292.216181
 20
941.749403
 42
-0.147229
  0
VERTEX
  8
0
 10
1292.655968
 20
941.430454
 42
-0.002125
  0
VERTEX
  8
0
 10
1294.624970
 20
938.822684
 42
-0.005644
  0
VERTEX
  8
0
 10
1296.875932
 20
935.743133
 42
-0.003667
  0
SEQEND
  0
POLYLINE
  8
0
 66
1
 70
1
  0
VERTEX
  8
0
 10
1342.254883
 20
928.845481
 42
0.000000
  0
VERTEX
  8
0
 10
1348.868436
 20
919.190962
 42
0.000000
  0
VERTEX
  8
0
 10
1341.347576
 20
911.095481
 42
-0.004197
  0
VERTEX
  8
0
 10
1338.416877
 20
907.993492
 42
-0.006588
  0
VERTEX
  8
0
 10
1335.841107
 20
905.382365
 42
-0.002296
  0
VERTEX
  8
0
 10
1333.593480
 20
903.183434
 42
-0.200630
  0
VERTEX
  8
0
 10
1333.163358
 20
903.014697
 42
-0.228060
  0
VERTEX
  8
0
 10
1332.760283
 20
903.219750
 42
-0.002407
  0
VERTEX
  8
0
 10
1330.818120
 20
905.790891
 42
-0.007038
  0
VERTEX
  8
0
 10
1328.607997
 20
908.834659
 42
-0.004445
  0
VERTEX
  8
0
 10
1326.111095
 20
912.444933
 42
0.000000
  0
VERTEX
  8
0
 10
1319.722189
 20
921.860474
 42
0.000000
  0
VERTEX
  8
0
 10
1327.525440
 20
930.432559
 42
-0.002308
  0
VERTEX
  8
0
 10
1330.529017
 20
933.701625
 42
-0.003890
  0
VERTEX
  8
0
 10
1333.082404
 20
936.412474
 42
-0.000633
  0
VERTEX
  8
0
 10
1335.341247
 20
938.767557
 42
-0.489587
  0
VERTEX
  8
0
 10
1335.485010
 20
938.752322
 42
0.011177
  0
VERTEX
  8
0
 10
1335.613789
 20
938.554473
 42
0.000027
  0
VERTEX
  8
0
 10
1337.538142
 20
935.738104
 42
0.000175
  0
VERTEX
  8
0
 10
1339.708239
 20
932.564832
 42
0.000109
  0
SEQEND
  0
POLYLINE
  8
0
 66
1
 70
1
  0
VERTEX
  8
0
 10
1386.457625
 20
922.408161
 42
0.000000
  0
VERTEX
  8
0
 10
1394.046310
 20
909.816322
 42
0.000000
  0
VERTEX
  8
0
 10
1386.917208
 20
901.908161
 42
-0.002444
  0
VERTEX
  8
0
 10
1384.157187
 20
898.876453
 42
-0.003933
  0
VERTEX
  8
0
 10
1381.772328
 20
896.323022
 42
-0.000835
  0
VERTEX
  8
0
 10
1379.661788
 20
894.106065
 42
-0.204875
  0
VERTEX
  8
0
 10
1379.413799
 20
894.000000
 42
-0.243997
  0
VERTEX
  8
0
 10
1379.179462
 20
894.121594
 42
-0.000521
  0
VERTEX
  8
0
 10
1376.780236
 20
897.536355
 42
-0.003279
  0
VERTEX
  8
0
 10
1374.093295
 20
901.423071
 42
-0.002009
  0
VERTEX
  8
0
 10
1370.974102
 20
906.038656
 42
0.000000
  0
VERTEX
  8
0
 10
1362.908714
 20
918.077312
 42
0.000000
  0
VERTEX
  8
0
 10
1370.704357
 20
926.506238
 42
-0.000925
  0
VERTEX
  8
0
 10
1373.706509
 20
929.740249
 42
-0.001513
  0
VERTEX
  8
0
 10
1376.264218
 20
932.468690
 42
-0.000152
  0
VERTEX
  8
0
 10
1378.558312
 20
934.899640
 42
-0.161402
  0
VERTEX
  8
0
 10
1378.684470
 20
934.967582
 42
-0.306588
  0
VERTEX
  8
0
 10
1378.799148
 20
934.916230
 42
-0.000147
  0
VERTEX
  8
0
 10
1381.043928
 20
931.291625
 42
-0.001844
  0
VERTEX
  8
0
 10
1383.534606
 20
927.233962
 42
-0.001113
  0
SEQEND
  0
POLYLINE
  8
0
 66
1
 70
1
  0
VERTEX
  8
0
 10
1136.268127
 20
842.250000
 42
0.039927
  0
VERTEX
  8
0
 10
1137.928404
 20
830.213936
 42
0.036407
  0
VERTEX
  8
0
 10
1141.507868
 20
818.204453
 42
0.036535
  0
VERTEX
  8
0
 10
1146.774863
 20
806.884437
 42
0.040967
  0
VERTEX
  8
0
 10
1153.463836
 20
796.903229
 42
0.037819
  0
VERTEX
  8
0
 10
1156.534974
 20
793.592718
 42
0.015282
  0
VERTEX
  8
0
 10
1161.182967
 20
789.542964
 42
0.011663
  0
VERTEX
  8
0
 10
1167.584453
 20
784.545564
 42
0.004988
  0
VERTEX
  8
0
 10
1176.360231
 20
778.153229
 42
0.004649
  0
VERTEX
  8
0
 10
1183.568072
 20
773.112704
 42
0.006989
  0
VERTEX
  8
0
 10
1189.955527
 20
768.863761
 42
0.003252
  0
VERTEX
  8
0
 10
1195.439634
 20
765.375591
 42
0.140923
  0
VERTEX
  8
0
 10
1196.745783
 20
765.000000
 42
0.184773
  0
VERTEX
  8
0
 10
1198.959951
 20
765.847159
 42
0.081068
  0
VERTEX
  8
0
 10
1200.961556
 20
768.331670
 42
0.033723
  0
VERTEX
  8
0
 10
1203.368702
 20
773.328048
 42
0.004735
  0
VERTEX
  8
0
 10
1207.533435
 20
784.000000
 42
-0.008346
  0
VERTEX
  8
0
 10
1211.143990
 20
793.058220
 42
-0.021662
  0
VERTEX
  8
0
 10
1214.131219
 20
799.414989
 42
-0.020585
  0
VERTEX
  8
0
 10
1217.744350
 20
805.670432
 42
-0.006914
  0
VERTEX
  8
0
 10
1223.513770
 20
814.500000
 42
0.002906
  0
VERTEX
  8
0
 10
1227.880102
 20
821.066732
 42
0.002128
  0
VERTEX
  8
0
 10
1232.653097
 20
828.404224
 42
0.002149
  0
VERTEX
  8
0
 10
1237.114605
 20
835.392927
 42
0.004759
  0
VERTEX
  8
0
 10
1240.443417
 20
840.769698
 42
0.000000
  0
VERTEX
  8
0
 10
1247.273080
 20
852.039396
 42
0.000000
  0
VERTEX
  8
0
 10
1250.886540
 20
851.393405
 42
-0.016783
  0
VERTEX
  8
0
 10
1257.679896
 20
849.942125
 42
-0.007774
  0
VERTEX
  8
0
 10
1266.405019
 20
847.624982
 42
-0.007763
  0
VERTEX
  8
0
 10
1275.333947
 20
844.954118
 42
-0.012401
  0
VERTEX
  8
0
 10
1282.864257
 20
842.366550
 42
-0.040639
  0
VERTEX
  8
0
 10
1314.747144
 20
827.472856
 42
-0.055250
  0
VERTEX
  8
0
 10
1340.410959
 20
808.814578
 42
-0.061787
  0
VERTEX
  8
0
 10
1359.148196
 20
786.942497
 42
-0.075141
  0
VERTEX
  8
0
 10
1370.504478
 20
762.500000
 42
-0.061131
  0
VERTEX
  8
0
 10
1373.219138
 20
745.975804
 42
-0.078211
  0
VERTEX
  8
0
 10
1371.445942
 20
730.676380
 42
-0.078275
  0
VERTEX
  8
0
 10
1365.061208
 20
716.670606
 42
-0.061349
  0
VERTEX
  8
0
 10
1354.207139
 20
703.952760
 42
-0.004480
  0
VERTEX
  8
0
 10
1351.672056
 20
701.671263
 42
-0.006906
  0
VERTEX
  8
0
 10
1349.435325
 20
699.748623
 42
-0.002767
  0
VERTEX
  8
0
 10
1347.497460
 20
698.147008
 42
-0.172982
  0
VERTEX
  8
0
 10
1347.085254
 20
698.000000
 42
-0.271370
  0
VERTEX
  8
0
 10
1346.727444
 20
698.209635
 42
-0.001851
  0
VERTEX
  8
0
 10
1344.926182
 20
701.451563
 42
-0.006446
  0
VERTEX
  8
0
 10
1342.899895
 20
705.245419
 42
-0.003994
  0
VERTEX
  8
0
 10
1340.613580
 20
709.750000
 42
0.016766
  0
VERTEX
  8
0
 10
1332.823914
 20
724.172605
 42
0.037294
  0
VERTEX
  8
0
 10
1325.746443
 20
734.444950
 42
0.048095
  0
VERTEX
  8
0
 10
1318.576941
 20
741.780321
 42
0.059198
  0
VERTEX
  8
0
 10
1310.590278
 20
747.041049
 42
0.048667
  0
VERTEX
  8
0
 10
1304.606664
 20
749.340861
 42
0.068646
  0
VERTEX
  8
0
 10
1298.951141
 20
750.095263
 42
0.068043
  0
VERTEX
  8
0
 10
1293.265147
 20
749.291986
 42
0.046832
  0
VERTEX
  8
0
 10
1287.188795
 20
746.936478
 42
0.147813
  0
VERTEX
  8
0
 10
1272.453492
 20
733.017591
 42
0.095617
  0
VERTEX
  8
0
 10
1264.801340
 20
710.657286
 42
0.080408
  0
VERTEX
  8
0
 10
1265.385361
 20
683.366091
 42
0.065223
  0
VERTEX
  8
0
 10
1274.385912
 20
655.472651
 42
-0.004872
  0
VERTEX
  8
0
 10
1276.730122
 20
650.396725
 42
-0.033744
  0
VERTEX
  8
0
 10
1277.683219
 20
647.829167
 42
-0.108191
  0
VERTEX
  8
0
 10
1277.777885
 20
646.524554
 42
-0.375896
  0
VERTEX
  8
0
 10
1277.186575
 20
646.017766
 42
-0.018755
  0
VERTEX
  8
0
 10
1276.103932
 20
646.069815
 42
-0.001623
  0
VERTEX
  8
0
 10
1273.351681
 20
646.314830
 42
-0.002136
  0
VERTEX
  8
0
 10
1270.069937
 20
646.631868
 42
-0.001657
  0
VERTEX
  8
0
 10
1266.500000
 20
647.004100
 42
0.011509
  0
VERTEX
  8
0
 10
1261.316618
 20
647.441521
 42
0.002060
  0
VERTEX
  8
0
 10
1251.625000
 20
647.995069
 42
0.002224
  0
VERTEX
  8
0
 10
1240.262672
 20
648.546427
 42
0.002007
  0
VERTEX
  8
0
 10
1228.500000
 20
649.017495
 42
-0.003142
  0
VERTEX
  8
0
 10
1206.615871
 20
649.943662
 42
-0.011496
  0
VERTEX
  8
0
 10
1192.770145
 20
650.936310
 42
-0.014218
  0
VERTEX
  8
0
 10
1180.523876
 20
652.450193
 42
-0.006944
  0
VERTEX
  8
0
 10
1165.000000
 20
655.040191
 42
-0.010245
  0
VERTEX
  8
0
 10
1141.945599
 20
659.706231
 42
-0.018150
  0
VERTEX
  8
0
 10
1123.186456
 20
664.625965
 42
-0.020686
  0
VERTEX
  8
0
 10
1106.655039
 20
670.365063
 42
-0.020129
  0
VERTEX
  8
0
 10
1090.500000
 20
677.497557
 42
-0.016605
  0
VERTEX
  8
0
 10
1078.985886
 20
683.627587
 42
-0.020828
  0
VERTEX
  8
0
 10
1068.766872
 20
690.092647
 42
-0.021366
  0
VERTEX
  8
0
 10
1059.337540
 20
697.237934
 42
-0.019210
  0
VERTEX
  8
0
 10
1050.199464
 20
705.409111
 42
-0.046758
  0
VERTEX
  8
0
 10
1032.748902
 20
725.738799
 42
-0.077758
  0
VERTEX
  8
0
 10
1022.733107
 20
745.919546
 42
-0.093230
  0
VERTEX
  8
0
 10
1020.387271
 20
765.446312
 42
-0.101007
  0
VERTEX
  8
0
 10
1025.447878
 20
783.897142
 42
-0.034012
  0
VERTEX
  8
0
 10
1029.322512
 20
790.404873
 42
-0.017741
  0
VERTEX
  8
0
 10
1034.966359
 20
797.977254
 42
-0.017733
  0
VERTEX
  8
0
 10
1041.168327
 20
805.171819
 42
-0.032223
  0
VERTEX
  8
0
 10
1046.796692
 20
810.515636
 42
-0.032766
  0
VERTEX
  8
0
 10
1062.144910
 20
821.695386
 42
-0.022469
  0
VERTEX
  8
0
 10
1080.859265
 20
832.388115
 42
-0.021844
  0
VERTEX
  8
0
 10
1101.203581
 20
841.730447
 42
-0.024617
  0
VERTEX
  8
0
 10
1121.500000
 20
848.854891
 42
-0.005734
  0
VERTEX
  8
0
 10
1131.679443
 20
851.747813
 42
-0.173197
  0
VERTEX
  8
0
 10
1134.289595
 20
851.544949
 42
-0.265116
  0
VERTEX
  8
0
 10
1135.628648
 20
849.715839
 42
-0.014091
  0
SEQEND
  0
POLYLINE
  8
0
 66
1
 70
1
  0
VERTEX
  8
0
 10
1524.000000
 20
798.843138
 42
-0.041187
  0
VERTEX
  8
0
 10
1528.753722
 20
796.132443
 42
-0.039075
  0
VERTEX
  8
0
 10
1533.089185
 20
792.635992
 42
-0.040612
  0
VERTEX
  8
0
 10
1536.654134
 20
788.675036
 42
-0.056392
  0
VERTEX
  8
0
 10
1539.102676
 20
784.580815
 42
-0.079971
  0
VERTEX
  8
0
 10
1540.790572
 20
778.403166
 42
-0.064513
  0
VERTEX
  8
0
 10
1540.640857
 20
771.515864
 42
-0.064342
  0
VERTEX
  8
0
 10
1538.737979
 20
764.875643
 42
-0.078574
  0
VERTEX
  8
0
 10
1535.285366
 20
759.422358
 42
-0.094246
  0
VERTEX
  8
0
 10
1526.309020
 20
752.432527
 42
-0.076610
  0
VERTEX
  8
0
 10
1514.719446
 20
748.582138
 42
-0.074722
  0
VERTEX
  8
0
 10
1502.227110
 20
748.348894
 42
-0.081925
  0
VERTEX
  8
0
 10
1490.637443
 20
751.857722
 42
-0.128822
  0
VERTEX
  8
0
 10
1478.145990
 20
762.675107
 42
-0.176115
  0
VERTEX
  8
0
 10
1474.463585
 20
776.964792
 42
-0.168097
  0
VERTEX
  8
0
 10
1480.792451
 20
790.781908
 42
-0.116953
  0
VERTEX
  8
0
 10
1495.314288
 20
800.199808
 42
-0.061501
  0
VERTEX
  8
0
 10
1501.796841
 20
801.647030
 42
-0.036030
  0
VERTEX
  8
0
 10
1509.758088
 20
801.844270
 42
-0.036022
  0
VERTEX
  8
0
 10
1517.669330
 20
800.896174
 42
-0.061232
  0
SEQEND
  0
POLYLINE
  8
0
 66
1
 70
1
  0
VERTEX
  8
0
 10
1307.752273
 20
735.969090
 42
-0.032378
  0
VERTEX
  8
0
 10
1310.163745
 20
734.370371
 42
-0.020055
  0
VERTEX
  8
0
 10
1312.785319
 20
732.205487
 42
-0.019608
  0
VERTEX
  8
0
 10
1315.319502
 20
729.750194
 42
-0.024143
  0
VERTEX
  8
0
 10
1317.474198
 20
727.262148
 42
-0.045189
  0
VERTEX
  8
0
 10
1323.470334
 20
718.012072
 42
-0.002571
  0
VERTEX
  8
0
 10
1339.182168
 20
687.807998
 42
-0.002737
  0
VERTEX
  8
0
 10
1354.495819
 20
657.590204
 42
-0.041116
  0
VERTEX
  8
0
 10
1358.885326
 20
646.644665
 42
-0.067976
  0
VERTEX
  8
0
 10
1361.047011
 20
633.538755
 42
-0.161814
  0
VERTEX
  8
0
 10
1358.228927
 20
624.201660
 42
-0.167686
  0
VERTEX
  8
0
 10
1350.481171
 20
618.617110
 42
-0.074189
  0
VERTEX
  8
0
 10
1337.836462
 20
616.781513
 42
-0.056301
  0
VERTEX
  8
0
 10
1328.463008
 20
617.877826
 42
-0.053538
  0
VERTEX
  8
0
 10
1319.400759
 20
621.041608
 42
-0.050000
  0
VERTEX
  8
0
 10
1310.685975
 20
626.298481
 42
-0.038691
  0
VERTEX
  8
0
 10
1302.345583
 20
633.614157
 42
-0.038776
  0
VERTEX
  8
0
 10
1294.763210
 20
642.691545
 42
-0.028567
  0
VERTEX
  8
0
 10
1287.787838
 20
653.786166
 42
-0.028023
  0
VERTEX
  8
0
 10
1281.970066
 20
665.888030
 42
-0.032401
  0
VERTEX
  8
0
 10
1277.857874
 20
678.000000
 42
-0.038839
  0
VERTEX
  8
0
 10
1275.948402
 20
688.210015
 42
-0.027626
  0
VERTEX
  8
0
 10
1275.342965
 20
699.840931
 42
-0.028065
  0
VERTEX
  8
0
 10
1276.002688
 20
710.944731
 42
-0.057710
  0
VERTEX
  8
0
 10
1277.991625
 20
719.410591
 42
-0.022388
  0
VERTEX
  8
0
 10
1279.321222
 20
722.637728
 42
-0.022221
  0
VERTEX
  8
0
 10
1280.937066
 20
725.741348
 42
-0.022951
  0
VERTEX
  8
0
 10
1282.759164
 20
728.581910
 42
-0.029025
  0
VERTEX
  8
0
 10
1284.706855
 20
731.018849
 42
-0.051165
  0
VERTEX
  8
0
 10
1290.391262
 20
736.170223
 42
-0.105999
  0
VERTEX
  8
0
 10
1295.827788
 20
738.616287
 42
-0.115558
  0
VERTEX
  8
0
 10
1301.471021
 20
738.511840
 42
-0.068130
  0
SEQEND
  0
POLYLINE
  8
0
 66
1
 70
1
  0
VERTEX
  8
0
 10
1548.262496
 20
677.394795
 42
-0.004088
  0
VERTEX
  8
0
 10
1554.342554
 20
674.297822
 42
-0.004907
  0
VERTEX
  8
0
 10
1560.009565
 20
671.281634
 42
-0.004230
  0
VERTEX
  8
0
 10
1564.733384
 20
668.655564
 42
-0.032381
  0
VERTEX
  8
0
 10
1566.855171
 20
667.263686
 42
-0.131683
  0
VERTEX
  8
0
 10
1575.435992
 20
656.289704
 42
-0.071103
  0
VERTEX
  8
0
 10
1579.873684
 20
639.594296
 42
-0.071911
  0
VERTEX
  8
0
 10
1579.435285
 20
622.570097
 42
-0.145537
  0
VERTEX
  8
0
 10
1573.556361
 20
610.655315
 42
-0.133185
  0
VERTEX
  8
0
 10
1569.073757
 20
607.853841
 42
-0.133370
  0
VERTEX
  8
0
 10
1563.792484
 20
607.702821
 42
-0.091429
  0
VERTEX
  8
0
 10
1557.595698
 20
610.462246
 42
-0.037711
  0
VERTEX
  8
0
 10
1550.405842
 20
616.236961
 42
-0.057712
  0
VERTEX
  8
0
 10
1543.486581
 20
624.394659
 42
-0.064639
  0
VERTEX
  8
0
 10
1538.924830
 20
633.624053
 42
-0.047586
  0
VERTEX
  8
0
 10
1535.992476
 20
645.879750
 42
-0.016439
  0
VERTEX
  8
0
 10
1534.048482
 20
664.000000
 42
0.001150
  0
VERTEX
  8
0
 10
1533.605843
 20
669.790121
 42
0.001411
  0
VERTEX
  8
0
 10
1533.164777
 20
675.195312
 42
0.001170
  0
VERTEX
  8
0
 10
1532.770582
 20
679.736752
 42
0.010194
  0
VERTEX
  8
0
 10
1532.549634
 20
681.750000
 42
-0.012787
  0
VERTEX
  8
0
 10
1532.419403
 20
682.996211
 42
-0.021620
  0
VERTEX
  8
0
 10
1532.382337
 20
684.045313
 42
-0.017568
  0
VERTEX
  8
0
 10
1532.417159
 20
684.853702
 42
-0.391496
  0
VERTEX
  8
0
 10
1532.575366
 20
685.000000
 42
-0.113048
  0
VERTEX
  8
0
 10
1532.914676
 20
684.922290
 42
-0.000284
  0
VERTEX
  8
0
 10
1537.368931
 20
682.765971
 42
-0.001776
  0
VERTEX
  8
0
 10
1542.388551
 20
680.310372
 42
-0.001103
  0
SEQEND
  0
POLYLINE
  8
0
 66
1
 70
1
  0
VERTEX
  8
0
 10
637.197377
 20
648.984178
 42
0.032390
  0
VERTEX
  8
0
 10
645.081464
 20
645.862587
 42
0.039028
  0
VERTEX
  8
0
 10
652.829858
 20
644.013782
 42
0.033009
  0
VERTEX
  8
0
 10
661.757430
 20
643.206183
 42
0.015259
  0
VERTEX
  8
0
 10
673.418679
 20
643.279585
 42
0.017026
  0
VERTEX
  8
0
 10
685.231097
 20
644.118005
 42
0.025068
  0
VERTEX
  8
0
 10
695.506524
 20
645.723920
 42
0.026163
  0
VERTEX
  8
0
 10
705.232169
 20
648.284848
 42
0.021176
  0
VERTEX
  8
0
 10
715.364189
 20
652.007839
 42
0.024818
  0
VERTEX
  8
0
 10
722.322085
 20
655.318442
 42
0.017251
  0
VERTEX
  8
0
 10
729.840634
 20
659.705832
 42
0.017376
  0
VERTEX
  8
0
 10
736.929370
 20
664.529296
 42
0.028129
  0
VERTEX
  8
0
 10
742.559158
 20
669.161295
 42
-0.021548
  0
VERTEX
  8
0
 10
745.632163
 20
671.758192
 42
-0.083677
  0
VERTEX
  8
0
 10
747.821541
 20
672.930400
 42
-0.056281
  0
VERTEX
  8
0
 10
750.668668
 20
673.543681
 42
-0.006242
  0
VERTEX
  8
0
 10
757.307649
 20
674.124299
 42
-0.009273
  0
VERTEX
  8
0
 10
770.499228
 20
674.866502
 42
-0.019591
  0
VERTEX
  8
0
 10
780.743816
 20
674.850947
 42
-0.023594
  0
VERTEX
  8
0
 10
789.631001
 20
674.067981
 42
-0.022862
  0
VERTEX
  8
0
 10
798.500000
 20
672.447047
 42
0.018464
  0
VERTEX
  8
0
 10
815.719210
 20
669.143284
 42
0.022777
  0
VERTEX
  8
0
 10
831.970467
 20
667.396250
 42
0.023901
  0
VERTEX
  8
0
 10
847.612151
 20
667.181145
 42
0.024845
  0
VERTEX
  8
0
 10
863.000000
 20
668.472464
 42
-0.006792
  0
VERTEX
  8
0
 10
867.070627
 20
668.962553
 42
-0.010464
  0
VERTEX
  8
0
 10
870.604011
 20
669.264721
 42
-0.005171
  0
VERTEX
  8
0
 10
873.570131
 20
669.425172
 42
-0.220003
  0
VERTEX
  8
0
 10
874.141314
 20
669.190780
 42
-0.075878
  0
VERTEX
  8
0
 10
874.503853
 20
668.657220
 42
-0.003359
  0
VERTEX
  8
0
 10
875.456797
 20
666.625837
 42
-0.005607
  0
VERTEX
  8
0
 10
876.547423
 20
664.188208
 42
-0.003971
  0
VERTEX
  8
0
 10
877.718985
 20
661.429092
 42
0.048517
  0
VERTEX
  8
0
 10
884.143505
 20
649.400600
 42
0.038381
  0
VERTEX
  8
0
 10
893.238938
 20
637.783358
 42
0.031620
  0
VERTEX
  8
0
 10
905.711392
 20
625.770968
 42
0.016893
  0
VERTEX
  8
0
 10
922.500000
 20
612.480800
 42
-0.008731
  0
VERTEX
  8
0
 10
940.854323
 20
598.432279
 42
-0.023153
  0
VERTEX
  8
0
 10
953.305315
 20
587.576780
 42
-0.021092
  0
VERTEX
  8
0
 10
965.331821
 20
575.056207
 42
-0.006230
  0
VERTEX
  8
0
 10
982.682744
 20
554.895628
 42
-0.033806
  0
VERTEX
  8
0
 10
999.094359
 20
532.414632
 42
-0.053509
  0
VERTEX
  8
0
 10
1009.591259
 20
511.018129
 42
-0.058668
  0
VERTEX
  8
0
 10
1014.697654
 20
489.401500
 42
-0.052302
  0
VERTEX
  8
0
 10
1014.934559
 20
466.314663
 42
-0.031478
  0
VERTEX
  8
0
 10
1013.480857
 20
457.142526
 42
-0.006397
  0
VERTEX
  8
0
 10
1009.679979
 20
441.119827
 42
-0.004739
  0
VERTEX
  8
0
 10
1005.479226
 20
425.017156
 42
-0.061462
  0
VERTEX
  8
0
 10
1003.141640
 20
419.288614
 42
-0.585882
  0
VERTEX
  8
0
 10
1002.481468
 20
419.288189
 42
-0.006467
  0
VERTEX
  8
0
 10
999.830636
 20
424.157170
 42
-0.009671
  0
VERTEX
  8
0
 10
996.360317
 20
431.052312
 42
-0.003319
  0
VERTEX
  8
0
 10
991.595956
 20
441.164491
 42
0.004869
  0
VERTEX
  8
0
 10
983.347315
 20
458.532105
 42
0.022784
  0
VERTEX
  8
0
 10
978.054612
 20
468.250314
 42
0.034982
  0
VERTEX
  8
0
 10
973.054231
 20
475.341182
 42
0.024894
  0
VERTEX
  8
0
 10
966.539612
 20
482.563687
 42
0.047743
  0
VERTEX
  8
0
 10
952.750950
 20
493.983234
 42
0.050275
  0
VERTEX
  8
0
 10
937.274458
 20
502.354138
 42
0.046620
  0
VERTEX
  8
0
 10
919.419793
 20
507.919825
 42
0.032401
  0
VERTEX
  8
0
 10
898.500000
 20
510.958063
 42
0.019022
  0
VERTEX
  8
0
 10
880.405710
 20
511.707724
 42
0.002986
  0
VERTEX
  8
0
 10
844.722085
 20
511.614851
 42
0.003536
  0
VERTEX
  8
0
 10
808.076339
 20
511.041469
 42
0.009218
  0
VERTEX
  8
0
 10
781.737667
 20
509.956949
 42
-0.014492
  0
VERTEX
  8
0
 10
759.896195
 20
509.288247
 42
-0.029413
  0
VERTEX
  8
0
 10
742.743990
 20
510.270163
 42
-0.031672
  0
VERTEX
  8
0
 10
726.657830
 20
513.186007
 42
-0.019893
  0
VERTEX
  8
0
 10
708.296070
 20
518.514184
 42
-0.025785
  0
VERTEX
  8
0
 10
698.477654
 20
522.364939
 42
-0.010856
  0
VERTEX
  8
0
 10
685.689403
 20
528.495633
 42
-0.010597
  0
VERTEX
  8
0
 10
673.393018
 20
535.053412
 42
-0.032709
  0
VERTEX
  8
0
 10
665.500000
 20
540.185587
 42
-0.029214
  0
VERTEX
  8
0
 10
656.363155
 20
547.886659
 42
-0.008743
  0
VERTEX
  8
0
 10
643.361635
 20
560.651938
 42
-0.008353
  0
VERTEX
  8
0
 10
630.917503
 20
573.734977
 42
-0.036257
  0
VERTEX
  8
0
 10
624.261799
 20
582.115518
 42
-0.017260
  0
VERTEX
  8
0
 10
619.723137
 20
589.287901
 42
-0.014736
  0
VERTEX
  8
0
 10
615.431751
 20
597.139489
 42
-0.015211
  0
VERTEX
  8
0
 10
611.859482
 20
604.721365
 42
-0.029624
  0
VERTEX
  8
0
 10
609.562922
 20
611.000000
 42
-0.037677
  0
VERTEX
  8
0
 10
608.293854
 20
616.780711
 42
-0.000823
  0
VERTEX
  8
0
 10
604.301566
 20
645.287785
 42
-0.000909
  0
VERTEX
  8
0
 10
600.436519
 20
673.600337
 42
-0.033476
  0
VERTEX
  8
0
 10
600.000000
 20
680.112812
 42
-0.641525
  0
VERTEX
  8
0
 10
600.310259
 20
680.255106
 42
-0.002029
  0
VERTEX
  8
0
 10
604.550377
 20
676.574778
 42
-0.006061
  0
VERTEX
  8
0
 10
609.548678
 20
672.092534
 42
-0.003447
  0
VERTEX
  8
0
 10
615.490646
 20
666.556654
 42
0.004904
  0
VERTEX
  8
0
 10
623.348546
 20
659.278461
 42
0.014195
  0
VERTEX
  8
0
 10
628.976123
 20
654.451957
 42
0.020316
  0
VERTEX
  8
0
 10
633.387310
 20
651.168289
 42
0.039401
  0
SEQEND
  0
POLYLINE
  8
0
 66
1
 70
1
  0
VERTEX
  8
0
 10
440.463214
 20
878.167486
 42
-0.075563
  0
VERTEX
  8
0
 10
440.694268
 20
874.637653
 42
-0.046948
  0
VERTEX
  8
0
 10
439.952524
 20
870.545241
 42
-0.047617
  0
VERTEX
  8
0
 10
438.503614
 20
866.790610
 42
-0.099233
  0
VERTEX
  8
0
 10
436.585810
 20
864.326033
 42
-0.119366
  0
VERTEX
  8
0
 10
433.135277
 20
862.555458
 42
-0.031741
  0
VERTEX
  8
0
 10
426.999633
 20
861.483091
 42
-0.010232
  0
VERTEX
  8
0
 10
415.171709
 20
860.426351
 42
-0.000588
  0
VERTEX
  8
0
 10
378.791544
 20
857.968135
 42
-0.000808
  0
VERTEX
  8
0
 10
341.155684
 20
855.530642
 42
-0.014854
  0
VERTEX
  8
0
 10
329.188455
 20
855.131351
 42
-0.051019
  0
VERTEX
  8
0
 10
322.958991
 20
855.745699
 42
-0.134608
  0
VERTEX
  8
0
 10
318.992236
 20
857.750000
 42
-0.043989
  0
VERTEX
  8
0
 10
317.436480
 20
859.428686
 42
-0.057550
  0
VERTEX
  8
0
 10
316.353565
 20
861.216898
 42
-0.046375
  0
VERTEX
  8
0
 10
315.556986
 20
863.491489
 42
-0.018140
  0
VERTEX
  8
0
 10
314.869610
 20
866.750000
 42
0.014197
  0
VERTEX
  8
0
 10
314.310568
 20
869.507609
 42
0.037229
  0
VERTEX
  8
0
 10
313.708669
 20
871.434042
 42
0.054546
  0
VERTEX
  8
0
 10
313.071062
 20
872.640335
 42
0.248847
  0
VERTEX
  8
0
 10
312.393151
 20
873.000000
 42
0.382629
  0
VERTEX
  8
0
 10
311.307233
 20
872.026462
 42
0.031276
  0
VERTEX
  8
0
 10
311.114597
 20
867.886402
 42
0.011389
  0
VERTEX
  8
0
 10
311.437622
 20
859.567601
 42
0.000690
  0
VERTEX
  8
0
 10
313.007938
 20
834.661948
 42
0.003076
  0
VERTEX
  8
0
 10
313.891775
 20
822.145675
 42
0.003624
  0
VERTEX
  8
0
 10
314.887224
 20
810.308437
 42
0.003181
  0
VERTEX
  8
0
 10
315.863655
 20
800.326309
 42
0.022575
  0
VERTEX
  8
0
 10
316.585850
 20
795.515709
 42
0.055497
  0
VERTEX
  8
0
 10
322.675486
 20
776.175085
 42
0.076156
  0
VERTEX
  8
0
 10
332.471482
 20
760.822246
 42
0.079685
  0
VERTEX
  8
0
 10
346.023860
 20
749.595682
 42
0.067758
  0
VERTEX
  8
0
 10
363.169353
 20
742.397829
 42
0.046111
  0
VERTEX
  8
0
 10
371.100722
 20
741.036345
 42
0.022682
  0
VERTEX
  8
0
 10
381.342006
 20
740.703500
 42
0.022638
  0
VERTEX
  8
0
 10
391.758220
 20
741.309748
 42
0.038966
  0
VERTEX
  8
0
 10
400.300482
 20
742.875647
 42
0.062099
  0
VERTEX
  8
0
 10
415.848502
 20
749.144057
 42
0.065322
  0
VERTEX
  8
0
 10
429.089215
 20
758.955711
 42
0.066454
  0
VERTEX
  8
0
 10
439.169414
 20
771.681936
 42
0.068171
  0
VERTEX
  8
0
 10
445.452702
 20
786.500000
 42
0.043145
  0
VERTEX
  8
0
 10
447.001443
 20
795.075307
 42
0.017766
  0
VERTEX
  8
0
 10
447.673690
 20
806.874310
 42
0.014232
  0
VERTEX
  8
0
 10
447.567030
 20
821.946954
 42
0.007106
  0
VERTEX
  8
0
 10
446.618366
 20
841.000000
 42
0.000637
  0
VERTEX
  8
0
 10
444.848529
 20
868.091329
 42
0.013325
  0
VERTEX
  8
0
 10
444.093659
 20
876.170989
 42
0.048501
  0
VERTEX
  8
0
 10
443.264233
 20
879.937835
 42
0.325058
  0
VERTEX
  8
0
 10
441.803057
 20
881.000000
 42
0.064344
  0
VERTEX
  8
0
 10
440.812173
 20
880.871956
 42
0.221505
  0
VERTEX
  8
0
 10
440.326116
 20
880.468345
 42
0.142388
  0
VERTEX
  8
0
 10
440.201547
 20
879.691303
 42
0.023076
  0
SEQEND
  0
POLYLINE
  8
0
 66
1
 70
1
  0
VERTEX
  8
0
 10
439.811687
 20
818.194239
 42
-0.008376
  0
VERTEX
  8
0
 10
439.476719
 20
812.418469
 42
-0.025868
  0
VERTEX
  8
0
 10
438.983969
 20
808.541102
 42
-0.035505
  0
VERTEX
  8
0
 10
438.202300
 20
805.468425
 42
-0.032573
  0
VERTEX
  8
0
 10
436.976088
 20
802.444239
 42
-0.075307
  0
VERTEX
  8
0
 10
432.046964
 20
795.249650
 42
-0.054309
  0
VERTEX
  8
0
 10
424.665543
 20
788.888551
 42
-0.048969
  0
VERTEX
  8
0
 10
415.253550
 20
783.686481
 42
-0.039188
  0
VERTEX
  8
0
 10
404.283907
 20
779.944733
 42
-0.025169
  0
VERTEX
  8
0
 10
395.607510
 20
778.185381
 42
-0.014598
  0
VERTEX
  8
0
 10
385.045987
 20
776.906100
 42
-0.014618
  0
VERTEX
  8
0
 10
374.524019
 20
776.251732
 42
-0.027367
  0
VERTEX
  8
0
 10
366.000000
 20
776.437951
 42
-0.046331
  0
VERTEX
  8
0
 10
347.499500
 20
779.597679
 42
-0.094279
  0
VERTEX
  8
0
 10
334.267862
 20
785.985340
 42
-0.116247
  0
VERTEX
  8
0
 10
326.028918
 20
795.735624
 42
-0.096923
  0
VERTEX
  8
0
 10
322.312422
 20
808.813428
 42
-0.031888
  0
VERTEX
  8
0
 10
322.202019
 20
814.364212
 42
-0.098586
  0
VERTEX
  8
0
 10
323.090720
 20
817.989416
 42
-0.141384
  0
VERTEX
  8
0
 10
325.064422
 20
820.249549
 42
-0.097511
  0
VERTEX
  8
0
 10
328.242433
 20
821.510175
 42
-0.028309
  0
VERTEX
  8
0
 10
333.498026
 20
822.179237
 42
-0.000190
  0
VERTEX
  8
0
 10
379.328181
 20
825.376057
 42
-0.000423
  0
VERTEX
  8
0
 10
422.863632
 20
828.359192
 42
-0.011491
  0
VERTEX
  8
0
 10
434.378451
 20
828.872962
 42
0.000000
  0
VERTEX
  8
0
 10
440.256902
 20
829.000000
 42
0.000000
  0
SEQEND
  0
POLYLINE
  8
0
 66
1
 70
1
  0
VERTEX
  8
0
 10
1875.637261
 20
855.494629
 42
0.056619
  0
VERTEX
  8
0
 10
1871.814192
 20
853.665693
 42
0.066283
  0
VERTEX
  8
0
 10
1868.719472
 20
851.102636
 42
0.067230
  0
VERTEX
  8
0
 10
1866.436006
 20
847.852583
 42
0.060765
  0
VERTEX
  8
0
 10
1865.000322
 20
844.001340
 42
0.084210
  0
VERTEX
  8
0
 10
1864.550514
 20
837.340106
 42
0.101536
  0
VERTEX
  8
0
 10
1866.418499
 20
831.364519
 42
0.104848
  0
VERTEX
  8
0
 10
1870.423569
 20
826.745158
 42
0.095313
  0
VERTEX
  8
0
 10
1876.091983
 20
823.954232
 42
0.074714
  0
VERTEX
  8
0
 10
1881.540892
 20
823.306502
 42
0.025227
  0
VERTEX
  8
0
 10
1889.530369
 20
823.957295
 42
0.016597
  0
VERTEX
  8
0
 10
1901.046326
 20
825.873811
 42
0.004718
  0
VERTEX
  8
0
 10
1918.804154
 20
829.613064
 42
-0.003324
  0
VERTEX
  8
0
 10
1927.367089
 20
831.441103
 42
-0.003291
  0
VERTEX
  8
0
 10
1935.981818
 20
833.161368
 42
-0.003229
  0
VERTEX
  8
0
 10
1943.539597
 20
834.568349
 42
-0.012729
  0
VERTEX
  8
0
 10
1948.219057
 20
835.285831
 42
0.009712
  0
VERTEX
  8
0
 10
1952.182506
 20
835.869082
 42
0.026385
  0
VERTEX
  8
0
 10
1954.952888
 20
836.483622
 42
0.034312
  0
VERTEX
  8
0
 10
1956.803938
 20
837.137665
 42
0.201708
  0
VERTEX
  8
0
 10
1957.501840
 20
837.865390
 42
0.190554
  0
VERTEX
  8
0
 10
1957.487710
 20
839.252630
 42
0.197849
  0
VERTEX
  8
0
 10
1956.528376
 20
840.227371
 42
0.058568
  0
VERTEX
  8
0
 10
1954.004864
 20
840.968640
 42
0.006351
  0
VERTEX
  8
0
 10
1948.000000
 20
841.913101
 42
-0.016350
  0
VERTEX
  8
0
 10
1943.215487
 20
842.763986
 42
-0.003183
  0
VERTEX
  8
0
 10
1934.653125
 20
844.634379
 42
-0.003379
  0
VERTEX
  8
0
 10
1924.694589
 20
846.947095
 42
-0.003120
  0
VERTEX
  8
0
 10
1914.500000
 20
849.454726
 42
0.003176
  0
VERTEX
  8
0
 10
1895.997214
 20
854.003806
 42
0.020139
  0
VERTEX
  8
0
 10
1886.490914
 20
855.876005
 42
0.040914
  0
VERTEX
  8
0
 10
1880.397958
 20
856.317912
 42
0.081106
  0
SEQEND
  0
POLYLINE
  8
0
 66
1
 70
1
  0
VERTEX
  8
0
 10
1980.218183
 20
852.393616
 42
0.065832
  0
VERTEX
  8
0
 10
1976.920628
 20
850.122040
 42
0.075669
  0
VERTEX
  8
0
 10
1974.503975
 20
847.164293
 42
0.069744
  0
VERTEX
  8
0
 10
1972.942530
 20
843.416320
 42
0.045851
  0
VERTEX
  8
0
 10
1972.179015
 20
838.798103
 42
0.017259
  0
VERTEX
  8
0
 10
1972.055096
 20
835.512116
 42
0.054624
  0
VERTEX
  8
0
 10
1972.287637
 20
833.325715
 42
0.063245
  0
VERTEX
  8
0
 10
1972.965228
 20
831.418813
 42
0.029224
  0
VERTEX
  8
0
 10
1974.289321
 20
829.138994
 42
0.062742
  0
VERTEX
  8
0
 10
1976.913724
 20
826.085219
 42
0.065832
  0
VERTEX
  8
0
 10
1980.174261
 20
823.834992
 42
0.063996
  0
VERTEX
  8
0
 10
1983.991300
 20
822.464176
 42
0.054295
  0
VERTEX
  8
0
 10
1988.253246
 20
822.000000
 42
0.170413
  0
VERTEX
  8
0
 10
1997.178557
 20
825.132955
 42
0.153229
  0
VERTEX
  8
0
 10
2002.661904
 20
833.295306
 42
0.149832
  0
VERTEX
  8
0
 10
2002.562060
 20
843.272711
 42
0.162550
  0
VERTEX
  8
0
 10
1996.856723
 20
851.102022
 42
0.082256
  0
VERTEX
  8
0
 10
1993.244181
 20
852.867772
 42
0.053306
  0
VERTEX
  8
0
 10
1988.661453
 20
853.720554
 42
0.053418
  0
VERTEX
  8
0
 10
1984.016144
 20
853.584581
 42
0.084133
  0
SEQEND
  0
POLYLINE
  8
0
 66
1
 70
1
  0
VERTEX
  8
0
 10
1998.144197
 20
802.250000
 42
-0.034185
  0
VERTEX
  8
0
 10
1997.053328
 20
799.893457
 42
-0.049027
  0
VERTEX
  8
0
 10
1995.755043
 20
797.995177
 42
-0.044021
  0
VERTEX
  8
0
 10
1994.004074
 20
796.245679
 42
-0.021591
  0
VERTEX
  8
0
 10
1991.500000
 20
794.326944
 42
-0.033149
  0
VERTEX
  8
0
 10
1986.004251
 20
790.999915
 42
-0.000904
  0
VERTEX
  8
0
 10
1961.055912
 20
778.129111
 42
-0.000138
  0
VERTEX
  8
0
 10
1934.078164
 20
764.282428
 42
-0.325663
  0
VERTEX
  8
0
 10
1933.254996
 20
764.411671
 42
-0.132567
  0
VERTEX
  8
0
 10
1933.060876
 20
764.749297
 42
-0.002713
  0
VERTEX
  8
0
 10
1932.567769
 20
766.658328
 42
-0.006181
  0
VERTEX
  8
0
 10
1932.027982
 20
768.912958
 42
-0.004094
  0
VERTEX
  8
0
 10
1931.461542
 20
771.513825
 42
0.032758
  0
VERTEX
  8
0
 10
1929.881670
 20
777.183811
 42
0.042650
  0
VERTEX
  8
0
 10
1927.672872
 20
782.097081
 42
0.043920
  0
VERTEX
  8
0
 10
1924.722799
 20
786.450951
 42
0.038215
  0
VERTEX
  8
0
 10
1920.927743
 20
790.446315
 42
0.084794
  0
VERTEX
  8
0
 10
1911.679386
 20
796.316062
 42
0.084638
  0
VERTEX
  8
0
 10
1901.001043
 20
798.787900
 42
0.083165
  0
VERTEX
  8
0
 10
1889.946699
 20
797.596686
 42
0.078091
  0
VERTEX
  8
0
 10
1879.617405
 20
792.869969
 42
0.070202
  0
VERTEX
  8
0
 10
1873.280258
 20
787.253309
 42
0.057825
  0
VERTEX
  8
0
 10
1868.250155
 20
779.739127
 42
0.046756
  0
VERTEX
  8
0
 10
1864.274650
 20
769.812793
 42
0.024286
  0
VERTEX
  8
0
 10
1861.113144
 20
756.833753
 42
0.008951
  0
VERTEX
  8
0
 10
1859.197387
 20
745.836241
 42
0.000801
  0
VERTEX
  8
0
 10
1854.927024
 20
718.136865
 42
0.000518
  0
VERTEX
  8
0
 10
1850.583195
 20
689.458473
 42
0.016680
  0
VERTEX
  8
0
 10
1849.765362
 20
682.435614
 42
-0.037469
  0
VERTEX
  8
0
 10
1849.627887
 20
681.569856
 42
-0.059939
  0
VERTEX
  8
0
 10
1849.370026
 20
680.868052
 42
-0.083541
  0
VERTEX
  8
0
 10
1849.040316
 20
680.423870
 42
-0.245895
  0
VERTEX
  8
0
 10
1848.686157
 20
680.320751
 42
0.375690
  0
VERTEX
  8
0
 10
1848.208918
 20
680.047589
 42
0.000269
  0
VERTEX
  8
0
 10
1843.105006
 20
665.226335
 42
0.002577
  0
VERTEX
  8
0
 10
1837.464684
 20
648.539458
 42
0.001549
  0
VERTEX
  8
0
 10
1830.935352
 20
628.683793
 42
0.000000
  0
VERTEX
  8
0
 10
1814.073886
 20
576.867586
 42
0.000000
  0
VERTEX
  8
0
 10
1788.036943
 20
525.957836
 42
0.000666
  0
VERTEX
  8
0
 10
1778.054376
 20
506.374759
 42
0.001087
  0
VERTEX
  8
0
 10
1769.648352
 20
489.740543
 42
0.000105
  0
VERTEX
  8
0
 10
1762.161621
 20
474.837298
 42
0.116858
  0
VERTEX
  8
0
 10
1762.000000
 20
474.155213
 42
-0.159724
  0
VERTEX
  8
0
 10
1761.703263
 20
473.250003
 42
-0.000271
  0
VERTEX
  8
0
 10
1751.876923
 20
459.887935
 42
-0.002124
  0
VERTEX
  8
0
 10
1743.019721
 20
447.963832
 42
-0.010074
  0
VERTEX
  8
0
 10
1737.783033
 20
441.261833
 42
0.068090
  0
VERTEX
  8
0
 10
1737.415435
 20
440.658820
 42
0.185258
  0
VERTEX
  8
0
 10
1737.393256
 20
440.167555
 42
0.168089
  0
VERTEX
  8
0
 10
1737.709294
 20
439.755525
 42
0.054307
  0
VERTEX
  8
0
 10
1738.402980
 20
439.398856
 42
0.170223
  0
VERTEX
  8
0
 10
1739.381640
 20
439.370278
 42
0.053079
  0
VERTEX
  8
0
 10
1740.746659
 20
439.970188
 42
0.038799
  0
VERTEX
  8
0
 10
1742.443910
 20
441.125606
 42
0.017366
  0
VERTEX
  8
0
 10
1744.493261
 20
442.887023
 42
-0.061161
  0
VERTEX
  8
0
 10
1749.083927
 20
446.181993
 42
-0.179962
  0
VERTEX
  8
0
 10
1752.869884
 20
446.731976
 42
-0.197705
  0
VERTEX
  8
0
 10
1755.858644
 20
444.677466
 42
-0.074863
  0
VERTEX
  8
0
 10
1758.005501
 20
439.980820
 42
-0.060746
  0
VERTEX
  8
0
 10
1758.746305
 20
435.329942
 42
-0.000605
  0
VERTEX
  8
0
 10
1759.938299
 20
401.673673
 42
-0.000205
  0
VERTEX
  8
0
 10
1761.122003
 20
366.646514
 42
-0.207600
  0
VERTEX
  8
0
 10
1760.562396
 20
365.229062
 42
-0.378465
  0
VERTEX
  8
0
 10
1759.773748
 20
365.180272
 42
-0.000279
  0
VERTEX
  8
0
 10
1742.218738
 20
378.871887
 42
-0.001934
  0
VERTEX
  8
0
 10
1726.413286
 20
391.311875
 42
-0.028689
  0
VERTEX
  8
0
 10
1721.153130
 20
396.000716
 42
-0.053013
  0
VERTEX
  8
0
 10
1718.636123
 20
399.116638
 42
-0.112339
  0
VERTEX
  8
0
 10
1717.578516
 20
402.015716
 42
-0.101286
  0
VERTEX
  8
0
 10
1717.826904
 20
405.285508
 42
-0.037926
  0
VERTEX
  8
0
 10
1719.426901
 20
409.621297
 42
0.007983
  0
VERTEX
  8
0
 10
1720.772687
 20
412.689369
 42
0.059528
  0
VERTEX
  8
0
 10
1721.209396
 20
414.216757
 42
0.165967
  0
VERTEX
  8
0
 10
1721.058232
 20
415.100756
 42
0.178379
  0
VERTEX
  8
0
 10
1720.401393
 20
415.676213
 42
0.117434
  0
VERTEX
  8
0
 10
1719.701276
 20
415.769603
 42
0.080651
  0
VERTEX
  8
0
 10
1718.924346
 20
415.561140
 42
0.071310
  0
VERTEX
  8
0
 10
1718.166887
 20
415.080457
 42
0.060524
  0
VERTEX
  8
0
 10
1717.526015
 20
414.381460
 42
-0.006246
  0
VERTEX
  8
0
 10
1716.512648
 20
413.002161
 42
-0.000118
  0
VERTEX
  8
0
 10
1711.129650
 20
405.867456
 42
-0.000287
  0
VERTEX
  8
0
 10
1704.843245
 20
397.549384
 42
-0.000192
  0
VERTEX
  8
0
 10
1697.641904
 20
388.039665
 42
0.002185
  0
VERTEX
  8
0
 10
1688.036008
 20
375.248995
 42
0.011957
  0
VERTEX
  8
0
 10
1683.041881
 20
368.191964
 42
0.013444
  0
VERTEX
  8
0
 10
1680.147862
 20
363.627453
 42
0.317822
  0
VERTEX
  8
0
 10
1680.259353
 20
362.187498
 42
0.140492
  0
VERTEX
  8
0
 10
1680.991290
 20
361.687919
 42
0.209042
  0
VERTEX
  8
0
 10
1681.752528
 20
361.758452
 42
0.084722
  0
VERTEX
  8
0
 10
1682.728674
 20
362.537516
 42
0.013020
  0
VERTEX
  8
0
 10
1684.337789
 20
364.439665
 42
-0.061267
  0
VERTEX
  8
0
 10
1688.638515
 20
368.629321
 42
-0.110681
  0
VERTEX
  8
0
 10
1693.088246
 20
370.667216
 42
-0.120649
  0
VERTEX
  8
0
 10
1697.710592
 20
370.523275
 42
-0.081502
  0
VERTEX
  8
0
 10
1702.517865
 20
368.295752
 42
-0.016798
  0
VERTEX
  8
0
 10
1711.904899
 20
361.449360
 42
-0.000650
  0
VERTEX
  8
0
 10
1745.707665
 20
334.940657
 42
-0.000332
  0
VERTEX
  8
0
 10
1781.034599
 20
307.124510
 42
-0.036428
  0
VERTEX
  8
0
 10
1785.481844
 20
303.059751
 42
-0.087662
  0
VERTEX
  8
0
 10
1787.692241
 20
299.705046
 42
-0.106948
  0
VERTEX
  8
0
 10
1788.417811
 20
296.024497
 42
-0.091164
  0
VERTEX
  8
0
 10
1787.585333
 20
291.923447
 42
-0.048695
  0
VERTEX
  8
0
 10
1785.191453
 20
287.318577
 42
0.017552
  0
VERTEX
  8
0
 10
1783.353463
 20
284.263583
 42
0.091883
  0
VERTEX
  8
0
 10
1782.732904
 20
282.411288
 42
0.268136
  0
VERTEX
  8
0
 10
1783.128413
 20
281.432242
 42
0.179699
  0
VERTEX
  8
0
 10
1784.309017
 20
281.057548
 42
0.215026
  0
VERTEX
  8
0
 10
1785.067394
 20
281.444577
 42
0.000883
  0
VERTEX
  8
0
 10
1791.086333
 20
288.986738
 42
0.004115
  0
VERTEX
  8
0
 10
1797.875263
 20
297.670391
 42
0.002554
  0
VERTEX
  8
0
 10
1805.708287
 20
307.969722
 42
0.002091
  0
VERTEX
  8
0
 10
1815.874051
 20
321.597157
 42
0.010266
  0
VERTEX
  8
0
 10
1821.422553
 20
329.431802
 42
0.009040
  0
VERTEX
  8
0
 10
1824.830259
 20
334.660440
 42
0.375715
  0
VERTEX
  8
0
 10
1824.632775
 20
335.889807
 42
0.171763
  0
VERTEX
  8
0
 10
1823.832078
 20
336.184371
 42
0.122827
  0
VERTEX
  8
0
 10
1822.895255
 20
335.962928
 42
0.064317
  0
VERTEX
  8
0
 10
1821.690017
 20
335.129497
 42
0.016891
  0
VERTEX
  8
0
 10
1819.996578
 20
333.496469
 42
-0.045312
  0
VERTEX
  8
0
 10
1816.576460
 20
330.554071
 42
-0.080829
  0
VERTEX
  8
0
 10
1813.256806
 20
328.915195
 42
-0.096096
  0
VERTEX
  8
0
 10
1810.004979
 20
328.570273
 42
-0.090747
  0
VERTEX
  8
0
 10
1806.788076
 20
329.449943
 42
-0.042899
  0
VERTEX
  8
0
 10
1804.739201
 20
330.660537
 42
-0.003206
  0
VERTEX
  8
0
 10
1799.482960
 20
334.459454
 42
-0.004421
  0
VERTEX
  8
0
 10
1793.273729
 20
339.092958
 42
-0.003344
  0
VERTEX
  8
0
 10
1786.536892
 20
344.284991
 42
-0.003288
  0
VERTEX
  8
0
 10
1777.289154
 20
351.609729
 42
-0.018999
  0
VERTEX
  8
0
 10
1772.579075
 20
355.694752
 42
-0.036079
  0
VERTEX
  8
0
 10
1769.975645
 20
358.510562
 42
-0.118643
  0
VERTEX
  8
0
 10
1768.909734
 20
360.786966
 42
-0.021436
  0
VERTEX
  8
0
 10
1768.705502
 20
362.061636
 42
-0.030643
  0
VERTEX
  8
0
 10
1768.642854
 20
363.204955
 42
-0.031048
  0
VERTEX
  8
0
 10
1768.704682
 20
364.104812
 42
-0.225338
  0
VERTEX
  8
0
 10
1768.933700
 20
364.459024
 42
-0.133319
  0
VERTEX
  8
0
 10
1769.528295
 20
364.635488
 42
-0.000323
  0
VERTEX
  8
0
 10
1778.534773
 20
364.840685
 42
-0.002038
  0
VERTEX
  8
0
 10
1788.706364
 20
365.024371
 42
-0.001264
  0
VERTEX
  8
0
 10
1800.652055
 20
365.161182
 42
-0.001334
  0
VERTEX
  8
0
 10
1819.017122
 20
365.276092
 42
-0.011764
  0
VERTEX
  8
0
 10
1827.131857
 20
365.114285
 42
-0.025540
  0
VERTEX
  8
0
 10
1831.761514
 20
364.675324
 42
-0.109039
  0
VERTEX
  8
0
 10
1834.341197
 20
363.696009
 42
-0.091131
  0
VERTEX
  8
0
 10
1836.095571
 20
362.022544
 42
-0.126998
  0
VERTEX
  8
0
 10
1836.885883
 20
360.012382
 42
-0.103853
  0
VERTEX
  8
0
 10
1836.677136
 20
357.562833
 42
-0.047210
  0
VERTEX
  8
0
 10
1835.459688
 20
354.569866
 42
0.020225
  0
VERTEX
  8
0
 10
1834.703743
 20
352.965116
 42
0.087995
  0
VERTEX
  8
0
 10
1834.470923
 20
351.944363
 42
0.134296
  0
VERTEX
  8
0
 10
1834.650314
 20
351.135632
 42
0.075171
  0
VERTEX
  8
0
 10
1835.252454
 20
350.318974
 42
0.421247
  0
VERTEX
  8
0
 10
1836.559154
 20
350.334626
 42
0.015202
  0
VERTEX
  8
0
 10
1840.243953
 20
354.443481
 42
0.011759
  0
VERTEX
  8
0
 10
1846.055678
 20
361.672789
 42
0.001779
  0
VERTEX
  8
0
 10
1857.286606
 20
376.444951
 42
0.001631
  0
VERTEX
  8
0
 10
1865.227443
 20
387.038845
 42
0.002628
  0
VERTEX
  8
0
 10
1871.915440
 20
396.121529
 42
0.000461
  0
VERTEX
  8
0
 10
1877.768836
 20
404.174510
 42
0.158201
  0
VERTEX
  8
0
 10
1878.000000
 20
404.886825
 42
0.178210
  0
VERTEX
  8
0
 10
1877.564447
 20
406.070038
 42
0.231984
  0
VERTEX
  8
0
 10
1876.519958
 20
406.523336
 42
0.127344
  0
VERTEX
  8
0
 10
1874.945055
 20
406.036563
 42
0.052741
  0
VERTEX
  8
0
 10
1873.168740
 20
404.662287
 42
-0.106225
  0
VERTEX
  8
0
 10
1866.691892
 20
400.671618
 42
-0.053178
  0
VERTEX
  8
0
 10
1857.291628
 20
398.427998
 42
-0.024301
  0
VERTEX
  8
0
 10
1841.527053
 20
397.172966
 42
-0.003420
  0
VERTEX
  8
0
 10
1808.910651
 20
396.389675
 42
0.000000
  0
VERTEX
  8
0
 10
1768.321301
 20
395.692659
 42
0.000000
  0
VERTEX
  8
0
 10
1767.660651
 20
404.999954
 42
-0.015119
  0
VERTEX
  8
0
 10
1767.145952
 20
417.661503
 42
-0.002527
  0
VERTEX
  8
0
 10
1767.016096
 20
441.984114
 42
-0.000256
  0
VERTEX
  8
0
 10
1767.022322
 20
469.380616
 42
-0.413997
  0
VERTEX
  8
0
 10
1767.642164
 20
470.000000
 42
-0.116385
  0
VERTEX
  8
0
 10
1768.111316
 20
469.889296
 42
-0.000862
  0
VERTEX
  8
0
 10
1771.694911
 20
468.090625
 42
-0.003182
  0
VERTEX
  8
0
 10
1775.794072
 20
465.991503
 42
-0.002028
  0
VERTEX
  8
0
 10
1780.536987
 20
463.500000
 42
0.001574
  0
VERTEX
  8
0
 10
1785.269840
 20
461.008300
 42
0.002504
  0
VERTEX
  8
0
 10
1789.336771
 20
458.909375
 42
0.000537
  0
VERTEX
  8
0
 10
1792.918756
 20
457.088227
 42
0.117863
  0
VERTEX
  8
0
 10
1793.287835
 20
457.000000
 42
0.199338
  0
VERTEX
  8
0
 10
1793.517006
 20
457.095146
 42
0.040349
  0
VERTEX
  8
0
 10
1793.807875
 20
457.438309
 42
0.036826
  0
VERTEX
  8
0
 10
1794.102893
 20
457.920759
 42
0.027208
  0
VERTEX
  8
0
 10
1794.358600
 20
458.492114
 42
0.207003
  0
VERTEX
  8
0
 10
1794.320640
 20
459.399005
 42
0.042719
  0
VERTEX
  8
0
 10
1793.486094
 20
460.805681
 42
0.033662
  0
VERTEX
  8
0
 10
1792.049444
 20
462.552960
 42
0.015834
  0
VERTEX
  8
0
 10
1789.977755
 20
464.617577
 42
-0.043060
  0
VERTEX
  8
0
 10
1785.539420
 20
469.550145
 42
-0.049550
  0
VERTEX
  8
0
 10
1782.243780
 20
474.954290
 42
-0.052717
  0
VERTEX
  8
0
 10
1780.233070
 20
480.579986
 42
-0.062962
  0
VERTEX
  8
0
 10
1779.603234
 20
486.171342
 42
-0.031179
  0
VERTEX
  8
0
 10
1779.850802
 20
489.425831
 42
-0.036934
  0
VERTEX
  8
0
 10
1780.499982
 20
492.440587
 42
-0.029173
  0
VERTEX
  8
0
 10
1781.720691
 20
495.845295
 42
-0.011200
  0
VERTEX
  8
0
 10
1783.794136
 20
500.426820
 42
-0.007082
  0
VERTEX
  8
0
 10
1785.428436
 20
503.712639
 42
-0.011157
  0
VERTEX
  8
0
 10
1786.933286
 20
506.480214
 42
-0.005345
  0
VERTEX
  8
0
 10
1788.265938
 20
508.749327
 42
-0.264716
  0
VERTEX
  8
0
 10
1788.703918
 20
508.995187
 42
-0.117389
  0
VERTEX
  8
0
 10
1789.302904
 20
508.848761
 42
-0.000259
  0
VERTEX
  8
0
 10
1797.638026
 20
504.572991
 42
-0.001722
  0
VERTEX
  8
0
 10
1807.016540
 20
499.714963
 42
-0.001067
  0
VERTEX
  8
0
 10
1818.000000
 20
493.947664
 42
0.000002
  0
VERTEX
  8
0
 10
1830.326365
 20
487.441683
 42
0.000001
  0
VERTEX
  8
0
 10
1843.806608
 20
480.326773
 42
0.000001
  0
VERTEX
  8
0
 10
1856.427934
 20
473.665283
 42
0.000003
  0
VERTEX
  8
0
 10
1865.831006
 20
468.702477
 42
-0.004454
  0
VERTEX
  8
0
 10
1873.501745
 20
464.566254
 42
-0.005526
  0
VERTEX
  8
0
 10
1880.561296
 20
460.575722
 42
-0.004564
  0
VERTEX
  8
0
 10
1886.413034
 20
457.110289
 42
-0.040889
  0
VERTEX
  8
0
 10
1888.831006
 20
455.363810
 42
-0.022976
  0
VERTEX
  8
0
 10
1890.851505
 20
453.469377
 42
-0.081929
  0
VERTEX
  8
0
 10
1891.861045
 20
452.019245
 42
-0.087932
  0
VERTEX
  8
0
 10
1892.314139
 20
450.377282
 42
-0.028928
  0
VERTEX
  8
0
 10
1892.404643
 20
447.863810
 42
-0.036966
  0
VERTEX
  8
0
 10
1892.215268
 20
445.891956
 42
-0.021369
  0
VERTEX
  8
0
 10
1891.712787
 20
443.561630
 42
-0.021273
  0
VERTEX
  8
0
 10
1891.004906
 20
441.254020
 42
-0.033225
  0
VERTEX
  8
0
 10
1890.183293
 20
439.345995
 42
0.008968
  0
VERTEX
  8
0
 10
1888.988477
 20
436.904421
 42
0.082792
  0
VERTEX
  8
0
 10
1888.673244
 20
435.774013
 42
0.218838
  0
VERTEX
  8
0
 10
1888.903767
 20
435.087899
 42
0.112818
  0
VERTEX
  8
0
 10
1889.671777
 20
434.572456
 42
0.020277
  0
VERTEX
  8
0
 10
1890.311359
 20
434.356339
 42
0.028593
  0
VERTEX
  8
0
 10
1890.897371
 20
434.220279
 42
0.028097
  0
VERTEX
  8
0
 10
1891.371857
 20
434.165574
 42
0.214189
  0
VERTEX
  8
0
 10
1891.576871
 20
434.243538
 42
0.081131
  0
VERTEX
  8
0
 10
1893.454689
 20
436.854548
 42
0.000409
  0
VERTEX
  8
0
 10
1907.801252
 20
465.755589
 42
0.000180
  0
VERTEX
  8
0
 10
1922.479037
 20
495.411454
 42
0.209238
  0
VERTEX
  8
0
 10
1922.541598
 20
496.750000
 42
0.159358
  0
VERTEX
  8
0
 10
1921.739854
 20
497.737646
 42
0.283936
  0
VERTEX
  8
0
 10
1920.729310
 20
497.757407
 42
0.114502
  0
VERTEX
  8
0
 10
1919.489398
 20
496.574752
 42
0.027325
  0
VERTEX
  8
0
 10
1918.048224
 20
494.094526
 42
-0.059883
  0
VERTEX
  8
0
 10
1915.065751
 20
489.653273
 42
-0.088464
  0
VERTEX
  8
0
 10
1911.434444
 20
486.696679
 42
-0.103584
  0
VERTEX
  8
0
 10
1907.459490
 20
485.465179
 42
-0.113337
  0
VERTEX
  8
0
 10
1903.460967
 20
485.994875
 42
-0.030033
  0
VERTEX
  8
0
 10
1901.271565
 20
486.965951
 42
-0.000343
  0
VERTEX
  8
0
 10
1887.073503
 20
494.325118
 42
-0.001053
  0
VERTEX
  8
0
 10
1870.698554
 20
502.870695
 42
-0.000687
  0
VERTEX
  8
0
 10
1851.831811
 20
512.800334
 42
0.000000
  0
VERTEX
  8
0
 10
1803.163622
 20
538.500000
 42
0.000000
  0
VERTEX
  8
0
 10
1807.277941
 20
546.412797
 42
-0.013537
  0
VERTEX
  8
0
 10
1809.090398
 20
549.679370
 42
-0.012299
  0
VERTEX
  8
0
 10
1811.133503
 20
552.951034
 42
-0.012419
  0
VERTEX
  8
0
 10
1813.105523
 20
555.786652
 42
-0.038243
  0
VERTEX
  8
0
 10
1814.625705
 20
557.559039
 42
-0.067426
  0
VERTEX
  8
0
 10
1818.643046
 20
560.617797
 42
-0.058614
  0
VERTEX
  8
0
 10
1823.521233
 20
562.674561
 42
-0.053613
  0
VERTEX
  8
0
 10
1829.154810
 20
563.669414
 42
-0.041122
  0
VERTEX
  8
0
 10
1835.409282
 20
563.578539
 42
0.001715
  0
VERTEX
  8
0
 10
1843.381173
 20
562.832625
 42
0.031026
  0
VERTEX
  8
0
 10
1845.939698
 20
562.761390
 42
0.132686
  0
VERTEX
  8
0
 10
1847.131563
 20
563.127504
 42
0.207152
  0
VERTEX
  8
0
 10
1847.728996
 20
564.000000
 42
0.289302
  0
VERTEX
  8
0
 10
1847.347672
 20
564.979241
 42
0.016253
  0
VERTEX
  8
0
 10
1844.539503
 20
566.915809
 42
0.016846
  0
VERTEX
  8
0
 10
1840.327226
 20
569.426667
 42
0.005637
  0
VERTEX
  8
0
 10
1834.010204
 20
572.816979
 42
-0.003983
  0
VERTEX
  8
0
 10
1828.639179
 20
575.676735
 42
-0.006417
  0
VERTEX
  8
0
 10
1824.115497
 20
578.207466
 42
-0.001852
  0
VERTEX
  8
0
 10
1820.251343
 20
580.453934
 42
-0.266153
  0
VERTEX
  8
0
 10
1820.000000
 20
580.892665
 42
-0.199901
  0
VERTEX
  8
0
 10
1820.565392
 20
582.250334
 42
-0.034869
  0
VERTEX
  8
0
 10
1822.710307
 20
584.100992
 42
-0.037918
  0
VERTEX
  8
0
 10
1825.278599
 20
585.734087
 42
-0.075191
  0
VERTEX
  8
0
 10
1827.548075
 20
586.538108
 42
-0.119002
  0
VERTEX
  8
0
 10
1830.342609
 20
586.408043
 42
-0.003998
  0
VERTEX
  8
0
 10
1841.010645
 20
583.208376
 42
-0.005275
  0
VERTEX
  8
0
 10
1856.348829
 20
578.296198
 42
-0.001359
  0
VERTEX
  8
0
 10
1881.000000
 20
570.039326
 42
-0.001628
  0
VERTEX
  8
0
 10
1900.535634
 20
563.365866
 42
-0.002501
  0
VERTEX
  8
0
 10
1917.400000
 20
557.448973
 42
-0.000825
  0
VERTEX
  8
0
 10
1931.947925
 20
552.235861
 42
-0.071381
  0
VERTEX
  8
0
 10
1934.000000
 20
551.145899
 42
-0.062847
  0
VERTEX
  8
0
 10
1936.573648
 20
548.717799
 42
-0.088626
  0
VERTEX
  8
0
 10
1938.115777
 20
545.974833
 42
-0.085797
  0
VERTEX
  8
0
 10
1938.642020
 20
542.798939
 42
-0.055295
  0
VERTEX
  8
0
 10
1938.203820
 20
539.084981
 42
-0.004662
  0
VERTEX
  8
0
 10
1937.750677
 20
537.210928
 42
-0.004859
  0
VERTEX
  8
0
 10
1937.268628
 20
535.371381
 42
-0.004681
  0
VERTEX
  8
0
 10
1936.821674
 20
533.789478
 42
-0.021178
  0
VERTEX
  8
0
 10
1936.513605
 20
532.881422
 42
0.083427
  0
VERTEX
  8
0
 10
1936.362419
 20
532.146765
 42
0.143687
  0
VERTEX
  8
0
 10
1936.515081
 20
531.546214
 42
0.131440
  0
VERTEX
  8
0
 10
1936.983030
 20
531.087837
 42
0.064566
  0
VERTEX
  8
0
 10
1937.761552
 20
530.772607
 42
0.377875
  0
VERTEX
  8
0
 10
1939.248198
 20
531.521796
 42
0.008483
  0
VERTEX
  8
0
 10
1942.326762
 20
539.591468
 42
0.007450
  0
VERTEX
  8
0
 10
1947.131465
 20
553.501106
 42
0.000801
  0
VERTEX
  8
0
 10
1957.724806
 20
585.891185
 42
0.000000
  0
VERTEX
  8
0
 10
1975.813394
 20
641.500000
 42
0.000000
  0
VERTEX
  8
0
 10
1956.656697
 20
651.140085
 42
0.002699
  0
VERTEX
  8
0
 10
1946.392939
 20
656.235797
 42
0.017082
  0
VERTEX
  8
0
 10
1941.070927
 20
658.620550
 42
0.029004
  0
VERTEX
  8
0
 10
1937.912583
 20
659.699238
 42
0.390851
  0
VERTEX
  8
0
 10
1936.915990
 20
659.187896
 42
0.187850
  0
VERTEX
  8
0
 10
1936.934446
 20
658.257335
 42
0.066731
  0
VERTEX
  8
0
 10
1937.612617
 20
657.085060
 42
0.044089
  0
VERTEX
  8
0
 10
1938.930997
 20
655.658057
 42
0.016984
  0
VERTEX
  8
0
 10
1940.990532
 20
653.913249
 42
-0.034136
  0
VERTEX
  8
0
 10
1946.139160
 20
649.239037
 42
-0.037015
  0
VERTEX
  8
0
 10
1950.454571
 20
644.025430
 42
-0.037521
  0
VERTEX
  8
0
 10
1953.904756
 20
638.301027
 42
-0.037111
  0
VERTEX
  8
0
 10
1956.475153
 20
632.104622
 42
-0.061994
  0
VERTEX
  8
0
 10
1957.792340
 20
625.442603
 42
-0.035512
  0
VERTEX
  8
0
 10
1957.795405
 20
617.236884
 42
-0.032477
  0
VERTEX
  8
0
 10
1956.560804
 20
608.184859
 42
-0.028331
  0
VERTEX
  8
0
 10
1954.128856
 20
598.936256
 42
-0.020842
  0
VERTEX
  8
0
 10
1951.513892
 20
591.892125
 42
-0.069755
  0
VERTEX
  8
0
 10
1949.002050
 20
587.667529
 42
-0.113099
  0
VERTEX
  8
0
 10
1946.179313
 20
585.431901
 42
-0.119857
  0
VERTEX
  8
0
 10
1942.725331
 20
584.710033
 42
-0.061436
  0
VERTEX
  8
0
 10
1940.577641
 20
585.046198
 42
-0.003333
  0
VERTEX
  8
0
 10
1933.984941
 20
586.975171
 42
-0.005153
  0
VERTEX
  8
0
 10
1926.162272
 20
589.408893
 42
-0.003736
  0
VERTEX
  8
0
 10
1917.500000
 20
592.273679
 42
-0.003550
  0
VERTEX
  8
0
 10
1900.762281
 20
598.081049
 42
-0.097332
  0
VERTEX
  8
0
 10
1896.772109
 20
600.446476
 42
-0.308437
  0
VERTEX
  8
0
 10
1896.049842
 20
603.356703
 42
-0.047676
  0
VERTEX
  8
0
 10
1898.778452
 20
609.000000
 42
-0.103617
  0
VERTEX
  8
0
 10
1903.474697
 20
614.019399
 42
-0.075797
  0
VERTEX
  8
0
 10
1910.329565
 20
617.422861
 42
-0.067578
  0
VERTEX
  8
0
 10
1918.670320
 20
618.894054
 42
-0.055515
  0
VERTEX
  8
0
 10
1927.698957
 20
618.249423
 42
0.010319
  0
VERTEX
  8
0
 10
1930.523444
 20
617.789097
 42
0.059588
  0
VERTEX
  8
0
 10
1932.033313
 20
617.756051
 42
0.131728
  0
VERTEX
  8
0
 10
1932.922781
 20
618.089935
 42
0.146878
  0
VERTEX
  8
0
 10
1933.481739
 20
618.813010
 42
0.056007
  0
VERTEX
  8
0
 10
1933.646779
 20
619.447404
 42
0.057984
  0
VERTEX
  8
0
 10
1933.664124
 20
620.095061
 42
0.064363
  0
VERTEX
  8
0
 10
1933.539500
 20
620.658678
 42
0.123215
  0
VERTEX
  8
0
 10
1933.282783
 20
621.040971
 42
0.104648
  0
VERTEX
  8
0
 10
1930.950009
 20
622.394375
 42
0.000373
  0
VERTEX
  8
0
 10
1900.359659
 20
632.410547
 42
0.000200
  0
VERTEX
  8
0
 10
1869.204904
 20
642.571979
 42
0.220591
  0
VERTEX
  8
0
 10
1867.854434
 20
642.410035
 42
0.197885
  0
VERTEX
  8
0
 10
1867.110113
 20
641.381638
 42
0.209231
  0
VERTEX
  8
0
 10
1867.328563
 20
640.158481
 42
0.099765
  0
VERTEX
  8
0
 10
1868.722788
 20
638.771808
 42
0.032740
  0
VERTEX
  8
0
 10
1871.250000
 20
637.330342
 42
-0.035731
  0
VERTEX
  8
0
 10
1876.393835
 20
634.355544
 42
-0.030980
  0
VERTEX
  8
0
 10
1881.326514
 20
630.545424
 42
-0.032276
  0
VERTEX
  8
0
 10
1885.403613
 20
626.478346
 42
-0.067919
  0
VERTEX
  8
0
 10
1887.873735
 20
622.760829
 42
-0.046350
  0
VERTEX
  8
0
 10
1889.260926
 20
619.055296
 42
-0.050494
  0
VERTEX
  8
0
 10
1889.891134
 20
615.262871
 42
-0.046606
  0
VERTEX
  8
0
 10
1889.770830
 20
611.168776
 42
-0.031049
  0
VERTEX
  8
0
 10
1888.908750
 20
606.551892
 42
0.000000
  0
VERTEX
  8
0
 10
1887.817499
 20
602.218143
 42
0.000000
  0
VERTEX
  8
0
 10
1862.158750
 20
610.747510
 42
-0.000392
  0
VERTEX
  8
0
 10
1852.302178
 20
614.032564
 42
-0.000642
  0
VERTEX
  8
0
 10
1843.960568
 20
616.831878
 42
-0.000049
  0
VERTEX
  8
0
 10
1836.472479
 20
619.356282
 42
-0.085885
  0
VERTEX
  8
0
 10
1836.238929
 20
619.482843
 42
-0.318352
  0
VERTEX
  8
0
 10
1836.085611
 20
620.003396
 42
-0.000274
  0
VERTEX
  8
0
 10
1840.569729
 20
633.072113
 42
-0.001589
  0
VERTEX
  8
0
 10
1844.720069
 20
645.022812
 42
-0.035064
  0
VERTEX
  8
0
 10
1846.181045
 20
648.407023
 42
-0.043997
  0
VERTEX
  8
0
 10
1848.441859
 20
651.968836
 42
-0.026016
  0
VERTEX
  8
0
 10
1851.709026
 20
655.804521
 42
-0.026034
  0
VERTEX
  8
0
 10
1855.349471
 20
659.272862
 42
-0.044792
  0
VERTEX
  8
0
 10
1858.756505
 20
661.703190
 42
-0.032776
  0
VERTEX
  8
0
 10
1861.675079
 20
663.165814
 42
-0.047002
  0
VERTEX
  8
0
 10
1864.432999
 20
664.034369
 42
-0.032215
  0
VERTEX
  8
0
 10
1867.994925
 20
664.560887
 42
-0.007781
  0
VERTEX
  8
0
 10
1873.944157
 20
664.958805
 42
0.012239
  0
VERTEX
  8
0
 10
1883.692870
 20
665.698206
 42
0.550788
  0
VERTEX
  8
0
 10
1884.446513
 20
667.205211
 42
0.171329
  0
VERTEX
  8
0
 10
1881.990757
 20
669.224861
 42
0.004520
  0
VERTEX
  8
0
 10
1868.485514
 20
674.000000
 42
0.000000
  0
VERTEX
  8
0
 10
1852.471028
 20
679.500000
 42
0.000000
  0
VERTEX
  8
0
 10
1853.610997
 20
684.058870
 42
-0.042607
  0
VERTEX
  8
0
 10
1856.026510
 20
691.106511
 42
-0.141213
  0
VERTEX
  8
0
 10
1859.138497
 20
694.831881
 42
-0.139796
  0
VERTEX
  8
0
 10
1863.776176
 20
696.350794
 42
-0.041437
  0
VERTEX
  8
0
 10
1871.307791
 20
696.018332
 42
-0.006327
  0
VERTEX
  8
0
 10
1890.662349
 20
693.298844
 42
-0.001203
  0
VERTEX
  8
0
 10
1925.817315
 20
687.818150
 42
-0.000444
  0
VERTEX
  8
0
 10
1963.343549
 20
681.841086
 42
-0.029141
  0
VERTEX
  8
0
 10
1969.744133
 20
680.429250
 42
-0.052638
  0
VERTEX
  8
0
 10
1974.085623
 20
678.692449
 42
-0.127810
  0
VERTEX
  8
0
 10
1976.614887
 20
676.383152
 42
-0.112798
  0
VERTEX
  8
0
 10
1977.880849
 20
672.935801
 42
-0.036098
  0
VERTEX
  8
0
 10
1978.183480
 20
667.451620
 42
0.014026
  0
VERTEX
  8
0
 10
1978.210715
 20
664.978194
 42
0.023113
  0
VERTEX
  8
0
 10
1978.388785
 20
662.895163
 42
0.019482
  0
VERTEX
  8
0
 10
1978.662873
 20
661.302785
 42
0.354126
  0
VERTEX
  8
0
 10
1979.036771
 20
661.000000
 42
-0.021444
  0
VERTEX
  8
0
 10
1979.460317
 20
660.981826
 42
-0.014785
  0
VERTEX
  8
0
 10
1979.937364
 20
660.926563
 42
-0.014934
  0
VERTEX
  8
0
 10
1980.393847
 20
660.845962
 42
-0.029288
  0
VERTEX
  8
0
 10
1980.750000
 20
660.750000
 42
0.458846
  0
VERTEX
  8
0
 10
1981.102939
 20
660.960902
 42
0.000519
  0
VERTEX
  8
0
 10
1982.758413
 20
670.560937
 42
0.003562
  0
VERTEX
  8
0
 10
1984.549748
 20
681.480177
 42
0.002123
  0
VERTEX
  8
0
 10
1986.533960
 20
694.500000
 42
0.001424
  0
VERTEX
  8
0
 10
1989.187930
 20
712.784469
 42
0.009074
  0
VERTEX
  8
0
 10
1990.339738
 20
722.090303
 42
0.008909
  0
VERTEX
  8
0
 10
1990.847271
 20
727.897140
 42
0.364634
  0
VERTEX
  8
0
 10
1990.153788
 20
728.848393
 42
0.178202
  0
VERTEX
  8
0
 10
1988.937070
 20
728.712600
 42
0.145016
  0
VERTEX
  8
0
 10
1987.972998
 20
727.811097
 42
0.073587
  0
VERTEX
  8
0
 10
1987.213384
 20
725.931089
 42
0.019632
  0
VERTEX
  8
0
 10
1986.577049
 20
722.756470
 42
-0.078126
  0
VERTEX
  8
0
 10
1985.329832
 20
718.922377
 42
-0.084933
  0
VERTEX
  8
0
 10
1982.989968
 20
715.779012
 42
-0.089639
  0
VERTEX
  8
0
 10
1979.858904
 20
713.715804
 42
-0.100386
  0
VERTEX
  8
0
 10
1976.326923
 20
712.986080
 42
-0.029965
  0
VERTEX
  8
0
 10
1973.839108
 20
713.126228
 42
-0.002318
  0
VERTEX
  8
0
 10
1967.204780
 20
713.931714
 42
-0.003165
  0
VERTEX
  8
0
 10
1959.295765
 20
714.980077
 42
-0.002411
  0
VERTEX
  8
0
 10
1950.646797
 20
716.224805
 42
0.000000
  0
VERTEX
  8
0
 10
1928.793594
 20
719.477450
 42
0.000000
  0
VERTEX
  8
0
 10
1929.401101
 20
723.909695
 42
-0.004559
  0
VERTEX
  8
0
 10
1929.651705
 20
725.621870
 42
-0.007066
  0
VERTEX
  8
0
 10
1929.902326
 20
727.094381
 42
-0.002764
  0
VERTEX
  8
0
 10
1930.140699
 20
728.345683
 42
-0.184818
  0
VERTEX
  8
0
 10
1930.254304
 20
728.527175
 42
-0.043496
  0
VERTEX
  8
0
 10
1930.466107
 20
728.659688
 42
-0.000012
  0
VERTEX
  8
0
 10
1939.827827
 20
733.439901
 42
-0.000231
  0
VERTEX
  8
0
 10
1950.212891
 20
738.736284
 42
-0.000140
  0
VERTEX
  8
0
 10
1962.500000
 20
744.991233
 42
0.001228
  0
VERTEX
  8
0
 10
1974.848838
 20
751.311490
 42
0.001923
  0
VERTEX
  8
0
 10
1985.438092
 20
756.815675
 42
0.000501
  0
VERTEX
  8
0
 10
1994.657809
 20
761.664917
 42
0.071199
  0
VERTEX
  8
0
 10
1995.650951
 20
762.385028
 42
0.149850
  0
VERTEX
  8
0
 10
1996.188831
 20
763.360803
 42
0.003436
  0
VERTEX
  8
0
 10
1997.249160
 20
768.606852
 42
0.007370
  0
VERTEX
  8
0
 10
1998.367520
 20
774.829662
 42
0.004890
  0
VERTEX
  8
0
 10
1999.475433
 20
782.000000
 42
-0.001026
  0
VERTEX
  8
0
 10
2000.538478
 20
789.250844
 42
-0.001435
  0
VERTEX
  8
0
 10
2001.520455
 20
795.726562
 42
-0.000854
  0
VERTEX
  8
0
 10
2002.372911
 20
801.179618
 42
-0.019055
  0
VERTEX
  8
0
 10
2002.682890
 20
802.750000
 42
0.181608
  0
VERTEX
  8
0
 10
2002.463891
 20
804.474592
 42
0.307942
  0
VERTEX
  8
0
 10
2001.229735
 20
805.129285
 42
0.172455
  0
VERTEX
  8
0
 10
1999.437508
 20
804.260725
 42
0.103562
  0
SEQEND
  0
POLYLINE
  8
0
 66
1
 70
1
  0
VERTEX
  8
0
 10
1903.625141
 20
764.878045
 42
-0.072670
  0
VERTEX
  8
0
 10
1911.014670
 20
762.332411
 42
-0.080663
  0
VERTEX
  8
0
 10
1917.074853
 20
757.840820
 42
-0.082058
  0
VERTEX
  8
0
 10
1921.326118
 20
751.735436
 42
-0.078749
  0
VERTEX
  8
0
 10
1923.464197
 20
744.500000
 42
-0.045105
  0
VERTEX
  8
0
 10
1923.646979
 20
739.932947
 42
-0.008451
  0
VERTEX
  8
0
 10
1923.085524
 20
731.571844
 42
-0.003932
  0
VERTEX
  8
0
 10
1922.278682
 20
722.809000
 42
-0.173129
  0
VERTEX
  8
0
 10
1921.500765
 20
721.167431
 42
-0.237048
  0
VERTEX
  8
0
 10
1920.814304
 20
720.940027
 42
-0.000083
  0
VERTEX
  8
0
 10
1892.930858
 20
725.033817
 42
-0.000132
  0
VERTEX
  8
0
 10
1865.271180
 20
729.106863
 42
-0.132652
  0
VERTEX
  8
0
 10
1864.140369
 20
729.598662
 42
-0.259735
  0
VERTEX
  8
0
 10
1864.023492
 20
729.884165
 42
-0.001878
  0
VERTEX
  8
0
 10
1864.352432
 20
732.535486
 42
-0.006421
  0
VERTEX
  8
0
 10
1864.784997
 20
735.604307
 42
-0.003993
  0
VERTEX
  8
0
 10
1865.367300
 20
739.192964
 42
-0.059794
  0
VERTEX
  8
0
 10
1869.731204
 20
753.908404
 42
-0.143934
  0
VERTEX
  8
0
 10
1876.926353
 20
762.561868
 42
-0.140040
  0
VERTEX
  8
0
 10
1887.805133
 20
766.082410
 42
-0.055402
  0
SEQEND
  0
POLYLINE
  8
0
 66
1
 70
1
  0
VERTEX
  8
0
 10
448.699264
 20
750.250000
 42
-0.048875
  0
VERTEX
  8
0
 10
449.449471
 20
743.453057
 42
-0.110166
  0
VERTEX
  8
0
 10
448.389086
 20
738.408601
 42
-0.131349
  0
VERTEX
  8
0
 10
445.459683
 20
734.843610
 42
-0.085113
  0
VERTEX
  8
0
 10
440.630539
 20
732.499334
 42
-0.011554
  0
VERTEX
  8
0
 10
428.114382
 20
729.183031
 42
-0.000604
  0
VERTEX
  8
0
 10
387.709135
 20
719.522126
 42
-0.000287
  0
VERTEX
  8
0
 10
345.088127
 20
709.411721
 42
-0.028015
  0
VERTEX
  8
0
 10
338.962371
 20
708.320281
 42
-0.089254
  0
VERTEX
  8
0
 10
334.717307
 20
708.565614
 42
-0.113138
  0
VERTEX
  8
0
 10
331.208883
 20
710.308586
 42
-0.097694
  0
VERTEX
  8
0
 10
328.455945
 20
713.646653
 42
-0.053037
  0
VERTEX
  8
0
 10
326.431812
 20
718.586562
 42
0.019275
  0
VERTEX
  8
0
 10
325.690132
 20
720.813791
 42
0.036625
  0
VERTEX
  8
0
 10
324.897435
 20
722.527648
 42
0.045442
  0
VERTEX
  8
0
 10
324.117171
 20
723.674898
 42
0.224333
  0
VERTEX
  8
0
 10
323.429042
 20
724.000000
 42
0.103178
  0
VERTEX
  8
0
 10
322.883747
 20
723.886265
 42
0.098827
  0
VERTEX
  8
0
 10
322.419781
 20
723.563184
 42
0.096917
  0
VERTEX
  8
0
 10
322.108881
 20
723.080566
 42
0.095048
  0
VERTEX
  8
0
 10
322.000000
 20
722.512967
 42
0.057035
  0
VERTEX
  8
0
 10
322.304730
 20
719.850202
 42
0.000066
  0
VERTEX
  8
0
 10
334.922904
 20
665.475409
 42
0.000028
  0
VERTEX
  8
0
 10
347.717729
 20
610.386614
 42
0.140190
  0
VERTEX
  8
0
 10
348.264056
 20
609.402610
 42
0.220378
  0
VERTEX
  8
0
 10
348.903699
 20
609.167979
 42
0.000299
  0
VERTEX
  8
0
 10
362.273175
 20
610.278075
 42
0.002819
  0
VERTEX
  8
0
 10
375.006691
 20
611.415383
 42
0.004793
  0
VERTEX
  8
0
 10
385.641121
 20
612.528639
 42
0.010651
  0
VERTEX
  8
0
 10
388.534237
 20
612.922162
 42
0.086026
  0
VERTEX
  8
0
 10
389.798291
 20
613.352479
 42
0.217506
  0
VERTEX
  8
0
 10
390.296049
 20
614.017256
 42
0.118081
  0
VERTEX
  8
0
 10
390.274489
 20
615.058353
 42
0.097503
  0
VERTEX
  8
0
 10
389.827678
 20
615.982924
 42
0.121963
  0
VERTEX
  8
0
 10
389.091098
 20
616.582855
 42
0.083032
  0
VERTEX
  8
0
 10
387.930172
 20
616.910531
 42
0.026543
  0
VERTEX
  8
0
 10
386.133369
 20
617.011869
 42
-0.027077
  0
VERTEX
  8
0
 10
384.373432
 20
617.113012
 42
-0.011435
  0
VERTEX
  8
0
 10
382.026856
 20
617.430342
 42
-0.011275
  0
VERTEX
  8
0
 10
379.529756
 20
617.884313
 42
-0.014450
  0
VERTEX
  8
0
 10
377.255929
 20
618.419792
 42
-0.063767
  0
VERTEX
  8
0
 10
365.605438
 20
623.175365
 42
-0.082657
  0
VERTEX
  8
0
 10
356.646120
 20
630.418109
 42
-0.075455
  0
VERTEX
  8
0
 10
349.960303
 20
640.726193
 42
-0.043950
  0
VERTEX
  8
0
 10
345.077275
 20
654.666613
 42
-0.022622
  0
VERTEX
  8
0
 10
343.205729
 20
663.720398
 42
-0.080446
  0
VERTEX
  8
0
 10
343.217189
 20
669.625230
 42
-0.135778
  0
VERTEX
  8
0
 10
345.007060
 20
673.503439
 42
-0.126095
  0
VERTEX
  8
0
 10
348.581495
 20
676.042505
 42
-0.030702
  0
VERTEX
  8
0
 10
353.202576
 20
677.499260
 42
-0.000876
  0
VERTEX
  8
0
 10
373.309154
 20
682.467481
 42
-0.000138
  0
VERTEX
  8
0
 10
395.053334
 20
687.793547
 42
-0.262100
  0
VERTEX
  8
0
 10
395.728681
 20
687.604652
 42
-0.183711
  0
VERTEX
  8
0
 10
396.466024
 20
685.962493
 42
-0.010484
  0
VERTEX
  8
0
 10
396.678701
 20
680.322586
 42
-0.015695
  0
VERTEX
  8
0
 10
396.596834
 20
674.739997
 42
-0.068287
  0
VERTEX
  8
0
 10
395.998127
 20
671.494326
 42
-0.081791
  0
VERTEX
  8
0
 10
393.831282
 20
667.352384
 42
-0.044350
  0
VERTEX
  8
0
 10
389.971376
 20
663.072561
 42
-0.040514
  0
VERTEX
  8
0
 10
384.917086
 20
659.090326
 42
-0.036784
  0
VERTEX
  8
0
 10
379.125701
 20
655.829581
 42
0.015633
  0
VERTEX
  8
0
 10
374.914686
 20
653.687757
 42
0.071326
  0
VERTEX
  8
0
 10
372.723673
 20
652.042107
 42
0.210239
  0
VERTEX
  8
0
 10
372.210484
 20
650.717978
 42
0.248037
  0
VERTEX
  8
0
 10
372.883361
 20
649.572087
 42
0.198068
  0
VERTEX
  8
0
 10
374.091193
 20
649.374069
 42
0.000137
  0
VERTEX
  8
0
 10
406.774149
 20
656.986948
 42
0.000183
  0
VERTEX
  8
0
 10
439.252733
 20
664.574161
 42
0.139785
  0
VERTEX
  8
0
 10
440.728245
 20
665.394912
 42
0.193130
  0
VERTEX
  8
0
 10
440.818249
 20
665.605535
 42
0.036927
  0
VERTEX
  8
0
 10
440.796383
 20
666.029318
 42
0.034524
  0
VERTEX
  8
0
 10
440.693856
 20
666.550088
 42
0.025755
  0
VERTEX
  8
0
 10
440.512484
 20
667.106872
 42
0.222604
  0
VERTEX
  8
0
 10
439.805456
 20
667.787430
 42
0.046531
  0
VERTEX
  8
0
 10
438.088275
 20
668.199043
 42
0.028283
  0
VERTEX
  8
0
 10
435.300425
 20
668.438596
 42
0.007107
  0
VERTEX
  8
0
 10
430.738945
 20
668.506796
 42
-0.012697
  0
VERTEX
  8
0
 10
426.914438
 20
668.606749
 42
-0.012693
  0
VERTEX
  8
0
 10
423.099521
 20
668.900725
 42
-0.012705
  0
VERTEX
  8
0
 10
419.781009
 20
669.326821
 42
-0.046381
  0
VERTEX
  8
0
 10
417.724596
 20
669.842732
 42
-0.067956
  0
VERTEX
  8
0
 10
412.794679
 20
672.373102
 42
-0.064727
  0
VERTEX
  8
0
 10
408.631474
 20
676.168241
 42
-0.063184
  0
VERTEX
  8
0
 10
405.496507
 20
680.993740
 42
-0.059470
  0
VERTEX
  8
0
 10
403.586949
 20
686.547997
 42
0.000000
  0
VERTEX
  8
0
 10
402.929824
 20
689.595993
 42
0.000000
  0
VERTEX
  8
0
 10
429.066273
 20
695.863302
 42
-0.001635
  0
VERTEX
  8
0
 10
439.115274
 20
698.238247
 42
-0.002683
  0
VERTEX
  8
0
 10
447.639476
 20
700.175253
 42
-0.000340
  0
VERTEX
  8
0
 10
455.220793
 20
701.849857
 42
-0.255905
  0
VERTEX
  8
0
 10
455.591951
 20
701.741383
 42
-0.132766
  0
VERTEX
  8
0
 10
455.795881
 20
701.386374
 42
-0.000999
  0
VERTEX
  8
0
 10
456.651416
 20
698.110080
 42
-0.003636
  0
VERTEX
  8
0
 10
457.600182
 20
694.333922
 42
-0.002314
  0
VERTEX
  8
0
 10
458.652066
 20
689.926077
 42
-0.036808
  0
VERTEX
  8
0
 10
461.489308
 20
671.892065
 42
-0.096901
  0
VERTEX
  8
0
 10
460.049752
 20
658.945070
 42
-0.120900
  0
VERTEX
  8
0
 10
454.160786
 20
649.221728
 42
-0.076176
  0
VERTEX
  8
0
 10
443.407673
 20
641.323010
 42
0.024533
  0
VERTEX
  8
0
 10
440.095717
 20
639.380078
 42
0.095131
  0
VERTEX
  8
0
 10
438.393802
 20
637.732135
 42
0.258272
  0
VERTEX
  8
0
 10
438.255814
 20
636.439158
 42
0.204066
  0
VERTEX
  8
0
 10
439.283338
 20
635.444768
 42
0.140001
  0
VERTEX
  8
0
 10
440.257275
 20
635.358630
 42
0.002484
  0
VERTEX
  8
0
 10
445.467402
 20
636.387413
 42
0.006019
  0
VERTEX
  8
0
 10
451.554864
 20
637.697368
 42
0.003952
  0
VERTEX
  8
0
 10
458.533338
 20
639.345318
 42
0.002870
  0
VERTEX
  8
0
 10
468.591208
 20
641.865826
 42
0.021438
  0
VERTEX
  8
0
 10
473.300637
 20
643.292504
 42
0.046518
  0
VERTEX
  8
0
 10
475.775946
 20
644.427703
 42
0.276871
  0
VERTEX
  8
0
 10
476.438695
 20
645.619166
 42
0.047156
  0
VERTEX
  8
0
 10
476.252662
 20
647.078135
 42
0.000204
  0
VERTEX
  8
0
 10
472.759936
 20
662.589693
 42
0.000993
  0
VERTEX
  8
0
 10
468.749910
 20
680.201841
 42
0.000626
  0
VERTEX
  8
0
 10
464.001347
 20
700.750000
 42
0.000859
  0
VERTEX
  8
0
 10
456.846123
 20
731.298558
 42
0.007351
  0
VERTEX
  8
0
 10
453.418881
 20
744.919633
 42
0.007834
  0
VERTEX
  8
0
 10
451.125353
 20
752.990733
 42
0.330907
  0
VERTEX
  8
0
 10
449.767339
 20
754.000000
 42
0.086920
  0
VERTEX
  8
0
 10
448.816603
 20
753.833465
 42
0.241146
  0
VERTEX
  8
0
 10
448.367135
 20
753.351700
 42
0.108718
  0
VERTEX
  8
0
 10
448.307932
 20
752.380569
 42
0.012977
  0
SEQEND
  0
POLYLINE
  8
0
 66
1
 70
1
  0
VERTEX
  8
0
 10
448.519710
 20
573.001081
 42
0.018308
  0
VERTEX
  8
0
 10
446.103193
 20
572.471797
 42
0.007513
  0
VERTEX
  8
0
 10
442.865599
 20
571.585304
 42
0.007422
  0
VERTEX
  8
0
 10
439.414971
 20
570.528732
 42
0.009438
  0
VERTEX
  8
0
 10
436.265272
 20
569.446883
 42
0.055843
  0
VERTEX
  8
0
 10
422.890639
 20
562.798807
 42
0.054903
  0
VERTEX
  8
0
 10
411.234617
 20
553.323532
 42
0.054565
  0
VERTEX
  8
0
 10
401.859653
 20
541.478488
 42
0.053847
  0
VERTEX
  8
0
 10
395.219966
 20
527.834604
 42
0.018966
  0
VERTEX
  8
0
 10
393.787834
 20
523.323237
 42
0.034733
  0
VERTEX
  8
0
 10
393.021548
 20
519.543476
 42
0.025761
  0
VERTEX
  8
0
 10
392.662140
 20
515.007820
 42
0.006274
  0
VERTEX
  8
0
 10
392.549376
 20
507.500000
 42
0.021611
  0
VERTEX
  8
0
 10
392.983686
 20
496.846365
 42
0.036989
  0
VERTEX
  8
0
 10
394.382031
 20
488.064396
 42
0.036464
  0
VERTEX
  8
0
 10
397.076234
 20
479.498932
 42
0.020325
  0
VERTEX
  8
0
 10
401.520941
 20
469.500000
 42
0.036684
  0
VERTEX
  8
0
 10
408.222721
 20
458.121087
 42
0.047944
  0
VERTEX
  8
0
 10
416.011000
 20
448.901032
 42
0.049755
  0
VERTEX
  8
0
 10
425.158669
 20
441.591933
 42
0.044477
  0
VERTEX
  8
0
 10
435.910507
 20
435.914711
 42
0.000000
  0
VERTEX
  8
0
 10
443.321015
 20
432.808481
 42
0.000000
  0
VERTEX
  8
0
 10
448.180300
 20
435.084448
 42
0.016216
  0
VERTEX
  8
0
 10
449.989657
 20
436.004584
 42
0.029870
  0
VERTEX
  8
0
 10
451.386043
 20
436.885137
 42
0.035254
  0
VERTEX
  8
0
 10
452.280739
 20
437.627804
 42
0.443889
  0
VERTEX
  8
0
 10
452.269792
 20
438.018413
 42
0.078063
  0
VERTEX
  8
0
 10
451.679841
 20
438.381292
 42
0.003450
  0
VERTEX
  8
0
 10
449.448260
 20
439.295303
 42
0.005759
  0
VERTEX
  8
0
 10
446.772291
 20
440.334200
 42
0.004076
  0
VERTEX
  8
0
 10
443.745562
 20
441.441278
 42
-0.040265
  0
VERTEX
  8
0
 10
433.340522
 20
446.125220
 42
-0.051478
  0
VERTEX
  8
0
 10
424.707637
 20
452.111983
 42
-0.053821
  0
VERTEX
  8
0
 10
417.776592
 20
459.491719
 42
-0.050902
  0
VERTEX
  8
0
 10
412.430390
 20
468.314214
 42
-0.027349
  0
VERTEX
  8
0
 10
409.834858
 20
474.657385
 42
-0.032328
  0
VERTEX
  8
0
 10
408.112030
 20
480.904737
 42
-0.035104
  0
VERTEX
  8
0
 10
407.316603
 20
486.793233
 42
-0.050234
  0
VERTEX
  8
0
 10
407.507688
 20
492.055900
 42
-0.096820
  0
VERTEX
  8
0
 10
411.595376
 20
504.000932
 42
-0.060611
  0
VERTEX
  8
0
 10
420.493807
 20
515.857381
 42
-0.051963
  0
VERTEX
  8
0
 10
433.579388
 20
526.925345
 42
-0.037344
  0
VERTEX
  8
0
 10
450.169371
 20
536.503000
 42
-0.022390
  0
VERTEX
  8
0
 10
459.733619
 20
540.593534
 42
-0.032700
  0
VERTEX
  8
0
 10
468.500148
 20
543.247793
 42
-0.035095
  0
VERTEX
  8
0
 10
477.039114
 20
544.612320
 42
-0.032557
  0
VERTEX
  8
0
 10
485.904009
 20
544.818087
 42
-0.032370
  0
VERTEX
  8
0
 10
493.983685
 20
543.953503
 42
-0.053984
  0
VERTEX
  8
0
 10
500.553058
 20
542.070268
 42
-0.055681
  0
VERTEX
  8
0
 10
506.426573
 20
538.874565
 42
-0.037014
  0
VERTEX
  8
0
 10
512.377601
 20
534.027316
 42
-0.100244
  0
VERTEX
  8
0
 10
522.271029
 20
519.975383
 42
-0.103790
  0
VERTEX
  8
0
 10
525.757384
 20
503.356754
 42
-0.101201
  0
VERTEX
  8
0
 10
522.288997
 20
486.400478
 42
-0.090735
  0
VERTEX
  8
0
 10
512.374387
 20
471.413632
 42
0.014506
  0
VERTEX
  8
0
 10
510.229613
 20
469.047760
 42
0.027781
  0
VERTEX
  8
0
 10
508.675197
 20
467.010913
 42
0.030726
  0
VERTEX
  8
0
 10
507.702858
 20
465.369821
 42
0.213105
  0
VERTEX
  8
0
 10
507.654068
 20
464.459100
 42
0.024120
  0
VERTEX
  8
0
 10
507.900031
 20
463.900293
 42
0.033529
  0
VERTEX
  8
0
 10
508.176335
 20
463.428611
 42
0.035450
  0
VERTEX
  8
0
 10
508.444108
 20
463.089093
 42
0.211084
  0
VERTEX
  8
0
 10
508.645741
 20
463.000000
 42
0.110882
  0
VERTEX
  8
0
 10
508.974291
 20
463.073768
 42
0.000196
  0
VERTEX
  8
0
 10
514.126313
 20
465.512576
 42
0.001459
  0
VERTEX
  8
0
 10
519.910765
 20
468.274235
 42
0.000901
  0
VERTEX
  8
0
 10
526.696701
 20
471.553450
 42
-0.003699
  0
VERTEX
  8
0
 10
539.702927
 20
477.749008
 42
-0.089930
  0
VERTEX
  8
0
 10
543.566819
 20
478.767693
 42
-0.360572
  0
VERTEX
  8
0
 10
545.388523
 20
477.484342
 42
-0.065466
  0
VERTEX
  8
0
 10
545.984687
 20
473.068716
 42
-0.031461
  0
VERTEX
  8
0
 10
545.830255
 20
470.473892
 42
-0.088525
  0
VERTEX
  8
0
 10
545.296771
 20
468.742766
 42
-0.074158
  0
VERTEX
  8
0
 10
544.139258
 20
467.133574
 42
-0.017657
  0
VERTEX
  8
0
 10
541.750000
 20
464.845030
 42
-0.022601
  0
VERTEX
  8
0
 10
532.436625
 20
457.261642
 42
-0.000947
  0
VERTEX
  8
0
 10
498.052811
 20
431.859661
 42
-0.000548
  0
VERTEX
  8
0
 10
462.209172
 20
405.544520
 42
-0.043286
  0
VERTEX
  8
0
 10
456.223878
 20
401.910418
 42
-0.060785
  0
VERTEX
  8
0
 10
452.294923
 20
400.530590
 42
-0.126136
  0
VERTEX
  8
0
 10
449.069330
 20
400.642332
 42
-0.102752
  0
VERTEX
  8
0
 10
445.868815
 20
402.350931
 42
-0.032145
  0
VERTEX
  8
0
 10
441.904214
 20
406.114676
 42
0.010315
  0
VERTEX
  8
0
 10
439.537312
 20
408.566667
 42
0.051405
  0
VERTEX
  8
0
 10
438.051380
 20
409.767558
 42
0.124871
  0
VERTEX
  8
0
 10
437.027987
 20
410.116416
 42
0.246782
  0
VERTEX
  8
0
 10
436.260064
 20
409.788279
 42
0.328180
  0
VERTEX
  8
0
 10
436.191999
 20
408.396619
 42
0.002447
  0
VERTEX
  8
0
 10
442.953768
 20
398.302872
 42
0.005463
  0
VERTEX
  8
0
 10
452.786234
 20
384.115911
 42
0.001269
  0
VERTEX
  8
0
 10
469.628742
 20
360.500000
 42
0.000821
  0
VERTEX
  8
0
 10
482.885235
 20
342.075711
 42
0.001345
  0
VERTEX
  8
0
 10
494.183953
 20
326.515033
 42
0.000126
  0
VERTEX
  8
0
 10
504.336844
 20
312.618542
 42
0.153620
  0
VERTEX
  8
0
 10
504.890637
 20
312.210752
 42
0.215456
  0
VERTEX
  8
0
 10
506.178274
 20
312.332884
 42
0.000455
  0
VERTEX
  8
0
 10
523.893456
 20
322.473608
 42
0.001408
  0
VERTEX
  8
0
 10
540.577327
 20
332.106692
 42
0.056625
  0
VERTEX
  8
0
 10
543.957143
 20
334.620871
 42
0.042968
  0
VERTEX
  8
0
 10
544.599607
 20
335.335589
 42
0.130537
  0
VERTEX
  8
0
 10
544.843993
 20
335.935710
 42
0.157538
  0
VERTEX
  8
0
 10
544.736732
 20
336.507631
 42
0.071999
  0
VERTEX
  8
0
 10
544.276933
 20
337.123067
 42
0.198089
  0
VERTEX
  8
0
 10
543.260213
 20
337.546094
 42
0.038234
  0
VERTEX
  8
0
 10
541.231105
 20
337.397170
 42
0.025081
  0
VERTEX
  8
0
 10
538.150330
 20
336.773165
 42
0.006705
  0
VERTEX
  8
0
 10
533.319791
 20
335.470499
 42
-0.045381
  0
VERTEX
  8
0
 10
518.074351
 20
332.599844
 42
-0.099346
  0
VERTEX
  8
0
 10
506.307741
 20
333.811657
 42
-0.104786
  0
VERTEX
  8
0
 10
496.315507
 20
339.394040
 42
-0.054349
  0
VERTEX
  8
0
 10
486.592443
 20
349.959137
 42
-0.008289
  0
VERTEX
  8
0
 10
478.190550
 20
361.759158
 42
-0.070365
  0
VERTEX
  8
0
 10
475.298602
 20
367.571700
 42
-0.169822
  0
VERTEX
  8
0
 10
475.361992
 20
371.725786
 42
-0.108853
  0
VERTEX
  8
0
 10
477.984964
 20
375.831118
 42
-0.035918
  0
VERTEX
  8
0
 10
482.089011
 20
379.384384
 42
-0.000285
  0
VERTEX
  8
0
 10
516.851293
 20
405.332301
 42
-0.000712
  0
VERTEX
  8
0
 10
549.521669
 20
429.617436
 42
-0.012093
  0
VERTEX
  8
0
 10
560.482135
 20
437.337029
 42
-0.056827
  0
VERTEX
  8
0
 10
564.959137
 20
439.644512
 42
-0.135564
  0
VERTEX
  8
0
 10
568.652319
 20
439.988529
 42
-0.118515
  0
VERTEX
  8
0
 10
572.316704
 20
438.384822
 42
-0.038243
  0
VERTEX
  8
0
 10
576.783949
 20
434.427757
 42
0.013770
  0
VERTEX
  8
0
 10
579.161006
 20
432.105110
 42
0.029204
  0
VERTEX
  8
0
 10
581.148742
 20
430.471596
 42
0.034626
  0
VERTEX
  8
0
 10
582.729884
 20
429.479695
 42
0.217710
  0
VERTEX
  8
0
 10
583.656927
 20
429.421845
 42
0.204030
  0
VERTEX
  8
0
 10
584.194943
 20
429.942440
 42
0.180945
  0
VERTEX
  8
0
 10
584.227294
 20
430.725309
 42
0.065672
  0
VERTEX
  8
0
 10
583.615328
 20
431.999093
 42
0.010942
  0
VERTEX
  8
0
 10
582.076444
 20
434.244088
 42
-0.000696
  0
VERTEX
  8
0
 10
562.978269
 20
460.916534
 42
-0.005520
  0
VERTEX
  8
0
 10
554.295098
 20
473.367597
 42
-0.004237
  0
VERTEX
  8
0
 10
549.054848
 20
481.203307
 42
-0.326225
  0
VERTEX
  8
0
 10
549.125475
 20
482.623252
 42
0.155278
  0
VERTEX
  8
0
 10
549.646538
 20
483.957636
 42
0.129803
  0
VERTEX
  8
0
 10
549.352130
 20
485.456292
 42
0.153883
  0
VERTEX
  8
0
 10
548.413057
 20
486.449256
 42
0.222129
  0
VERTEX
  8
0
 10
547.226340
 20
486.533360
 42
-0.108995
  0
VERTEX
  8
0
 10
546.517610
 20
486.426773
 42
-0.057794
  0
VERTEX
  8
0
 10
545.640109
 20
486.589462
 42
-0.053453
  0
VERTEX
  8
0
 10
544.738920
 20
486.976422
 42
-0.055852
  0
VERTEX
  8
0
 10
543.954660
 20
487.541032
 42
0.035458
  0
VERTEX
  8
0
 10
543.145034
 20
488.175477
 42
0.095295
  0
VERTEX
  8
0
 10
542.475060
 20
488.461724
 42
0.154913
  0
VERTEX
  8
0
 10
541.944411
 20
488.411898
 42
0.155285
  0
VERTEX
  8
0
 10
541.540260
 20
488.065143
 42
-0.157942
  0
VERTEX
  8
0
 10
540.492466
 20
487.175542
 42
-0.182857
  0
VERTEX
  8
0
 10
539.190744
 20
487.137895
 42
-0.127817
  0
VERTEX
  8
0
 10
537.827863
 20
488.044629
 42
-0.065799
  0
VERTEX
  8
0
 10
536.665973
 20
489.750000
 42
-0.058017
  0
VERTEX
  8
0
 10
536.062070
 20
491.400506
 42
-0.010234
  0
VERTEX
  8
0
 10
535.358969
 20
494.629687
 42
-0.010965
  0
VERTEX
  8
0
 10
534.691907
 20
498.469837
 42
-0.009668
  0
VERTEX
  8
0
 10
534.162033
 20
502.500000
 42
0.013689
  0
VERTEX
  8
0
 10
532.850811
 20
511.888243
 42
0.026749
  0
VERTEX
  8
0
 10
531.205235
 20
519.259891
 42
0.028302
  0
VERTEX
  8
0
 10
528.851269
 20
526.138943
 42
0.017469
  0
VERTEX
  8
0
 10
525.353972
 20
533.944632
 42
0.015130
  0
VERTEX
  8
0
 10
522.567843
 20
539.213439
 42
0.028758
  0
VERTEX
  8
0
 10
519.963600
 20
543.239299
 42
0.026634
  0
VERTEX
  8
0
 10
516.782544
 20
547.133576
 42
0.011133
  0
VERTEX
  8
0
 10
512.109858
 20
552.045391
 42
0.039542
  0
VERTEX
  8
0
 10
501.240289
 20
561.369887
 42
0.052562
  0
VERTEX
  8
0
 10
489.980109
 20
567.891511
 42
0.053399
  0
VERTEX
  8
0
 10
477.753055
 20
571.851955
 42
0.042720
  0
VERTEX
  8
0
 10
464.000000
 20
573.526480
 42
0.009030
  0
VERTEX
  8
0
 10
459.614736
 20
573.604160
 42
0.008395
  0
VERTEX
  8
0
 10
455.121415
 20
573.527149
 42
0.008406
  0
VERTEX
  8
0
 10
451.129127
 20
573.324411
 42
0.027872
  0
SEQEND
  0
POLYLINE
  8
0
 66
1
 70
1
  0
VERTEX
  8
0
 10
607.449778
 20
391.918740
 42
0.204093
  0
VERTEX
  8
0
 10
607.359172
 20
391.322943
 42
0.050004
  0
VERTEX
  8
0
 10
607.708394
 20
390.371157
 42
0.043121
  0
VERTEX
  8
0
 10
608.365269
 20
389.269771
 42
0.031563
  0
VERTEX
  8
0
 10
609.268575
 20
388.168740
 42
-0.053336
  0
VERTEX
  8
0
 10
612.629474
 20
383.688493
 42
-0.112913
  0
VERTEX
  8
0
 10
613.955051
 20
379.580866
 42
-0.122564
  0
VERTEX
  8
0
 10
613.315424
 20
375.530463
 42
-0.069299
  0
VERTEX
  8
0
 10
610.750000
 20
371.240098
 42
-0.019664
  0
VERTEX
  8
0
 10
608.421690
 20
368.567220
 42
-0.001002
  0
VERTEX
  8
0
 10
600.506724
 20
360.205133
 42
-0.001599
  0
VERTEX
  8
0
 10
591.044355
 20
350.311804
 42
-0.001158
  0
VERTEX
  8
0
 10
580.443104
 20
339.349367
 42
0.004092
  0
VERTEX
  8
0
 10
559.437772
 20
317.371769
 42
0.028550
  0
VERTEX
  8
0
 10
549.900392
 20
305.991275
 42
0.059117
  0
VERTEX
  8
0
 10
545.005303
 20
297.487843
 42
0.068446
  0
VERTEX
  8
0
 10
542.536734
 20
288.482624
 42
0.053728
  0
VERTEX
  8
0
 10
542.414798
 20
283.299547
 42
0.026201
  0
VERTEX
  8
0
 10
543.314300
 20
276.737181
 42
0.026104
  0
VERTEX
  8
0
 10
544.930653
 20
270.155160
 42
0.043559
  0
VERTEX
  8
0
 10
547.045614
 20
264.860971
 42
0.051145
  0
VERTEX
  8
0
 10
552.519596
 20
256.308170
 42
0.029088
  0
VERTEX
  8
0
 10
560.715833
 20
247.143795
 42
0.029115
  0
VERTEX
  8
0
 10
569.886768
 20
239.023141
 42
0.052845
  0
VERTEX
  8
0
 10
578.359371
 20
233.700299
 42
0.047130
  0
VERTEX
  8
0
 10
586.252225
 20
230.719086
 42
0.044020
  0
VERTEX
  8
0
 10
594.747058
 20
229.182306
 42
0.045719
  0
VERTEX
  8
0
 10
603.018735
 20
229.185486
 42
0.063652
  0
VERTEX
  8
0
 10
610.238645
 20
230.791589
 42
0.063429
  0
VERTEX
  8
0
 10
616.887191
 20
234.191533
 42
0.028234
  0
VERTEX
  8
0
 10
624.700351
 20
240.203620
 42
0.016323
  0
VERTEX
  8
0
 10
635.586448
 20
250.242850
 42
0.003567
  0
VERTEX
  8
0
 10
653.629422
 20
268.261578
 42
-0.002023
  0
VERTEX
  8
0
 10
664.085284
 20
278.768076
 42
-0.002880
  0
VERTEX
  8
0
 10
673.465158
 20
288.010313
 42
-0.001605
  0
VERTEX
  8
0
 10
681.456188
 20
295.744048
 42
-0.042425
  0
VERTEX
  8
0
 10
683.766830
 20
297.616514
 42
-0.036585
  0
VERTEX
  8
0
 10
685.404967
 20
298.561190
 42
-0.030306
  0
VERTEX
  8
0
 10
687.268354
 20
299.325760
 42
-0.031176
  0
VERTEX
  8
0
 10
689.129347
 20
299.833680
 42
-0.051072
  0
VERTEX
  8
0
 10
690.753392
 20
300.000000
 42
-0.097689
  0
VERTEX
  8
0
 10
695.673780
 20
299.029402
 42
-0.074809
  0
VERTEX
  8
0
 10
700.390370
 20
296.209448
 42
-0.079235
  0
VERTEX
  8
0
 10
703.822609
 20
292.331161
 42
-0.142534
  0
VERTEX
  8
0
 10
705.000000
 20
288.284851
 42
-0.070609
  0
VERTEX
  8
0
 10
704.864495
 20
287.330094
 42
-0.017728
  0
VERTEX
  8
0
 10
704.372569
 20
285.832732
 42
-0.017746
  0
VERTEX
  8
0
 10
703.681660
 20
284.144038
 42
-0.017041
  0
VERTEX
  8
0
 10
702.864066
 20
282.485191
 42
-0.027929
  0
VERTEX
  8
0
 10
699.629576
 20
277.184057
 42
-0.000345
  0
VERTEX
  8
0
 10
676.978101
 20
244.384003
 42
-0.000927
  0
VERTEX
  8
0
 10
655.801609
 20
213.886019
 42
-0.007206
  0
VERTEX
  8
0
 10
645.689828
 20
199.817283
 42
-0.039450
  0
VERTEX
  8
0
 10
640.605718
 20
193.979056
 42
-0.130713
  0
VERTEX
  8
0
 10
636.210272
 20
191.488470
 42
-0.151041
  0
VERTEX
  8
0
 10
631.549852
 20
191.694818
 42
-0.058898
  0
VERTEX
  8
0
 10
625.714972
 20
194.598237
 42
0.030838
  0
VERTEX
  8
0
 10
623.223846
 20
196.017052
 42
0.110368
  0
VERTEX
  8
0
 10
621.453150
 20
196.443290
 42
0.242588
  0
VERTEX
  8
0
 10
620.432148
 20
195.937939
 42
0.171443
  0
VERTEX
  8
0
 10
620.052388
 20
194.690983
 42
0.230926
  0
VERTEX
  8
0
 10
621.200272
 20
192.579031
 42
0.000515
  0
VERTEX
  8
0
 10
651.396049
 20
171.112207
 42
0.002274
  0
VERTEX
  8
0
 10
679.165697
 20
151.602429
 42
0.036742
  0
VERTEX
  8
0
 10
689.000000
 20
145.781516
 42
0.064569
  0
VERTEX
  8
0
 10
706.282831
 20
139.822452
 42
0.100958
  0
VERTEX
  8
0
 10
721.963138
 20
139.793619
 42
0.117747
  0
VERTEX
  8
0
 10
734.725405
 20
145.705633
 42
0.111986
  0
VERTEX
  8
0
 10
743.720218
 20
156.839456
 42
0.021234
  0
VERTEX
  8
0
 10
745.161488
 20
160.119362
 42
0.041962
  0
VERTEX
  8
0
 10
745.967901
 20
162.844695
 42
0.038196
  0
VERTEX
  8
0
 10
746.350259
 20
165.828323
 42
0.014769
  0
VERTEX
  8
0
 10
746.440248
 20
170.000000
 42
0.043407
  0
VERTEX
  8
0
 10
745.836962
 20
176.349620
 42
0.052646
  0
VERTEX
  8
0
 10
744.146727
 20
182.083053
 42
0.044055
  0
VERTEX
  8
0
 10
741.022824
 20
188.084517
 42
0.020001
  0
VERTEX
  8
0
 10
735.960956
 20
195.358162
 42
-0.006958
  0
VERTEX
  8
0
 10
734.087743
 20
197.905513
 42
-0.012657
  0
VERTEX
  8
0
 10
732.640089
 20
200.045170
 42
-0.008087
  0
VERTEX
  8
0
 10
731.582928
 20
201.756555
 42
-0.587408
  0
VERTEX
  8
0
 10
731.716477
 20
201.987099
 42
-0.061848
  0
VERTEX
  8
0
 10
732.253463
 20
201.911424
 42
-0.002551
  0
VERTEX
  8
0
 10
734.131949
 20
201.394277
 42
-0.004400
  0
VERTEX
  8
0
 10
736.353563
 20
200.749313
 42
-0.003105
  0
VERTEX
  8
0
 10
738.839094
 20
199.987099
 42
0.034177
  0
VERTEX
  8
0
 10
744.342499
 20
198.666904
 42
0.032847
  0
VERTEX
  8
0
 10
750.048234
 20
198.086121
 42
0.034103
  0
VERTEX
  8
0
 10
755.536598
 20
198.264060
 42
0.046708
  0
VERTEX
  8
0
 10
760.383980
 20
199.216116
 42
0.084966
  0
VERTEX
  8
0
 10
765.082855
 20
201.525528
 42
0.045764
  0
VERTEX
  8
0
 10
769.957717
 20
205.782165
 42
0.045352
  0
VERTEX
  8
0
 10
774.056849
 20
210.946707
 42
0.073024
  0
VERTEX
  8
0
 10
776.417347
 20
216.033630
 42
0.058710
  0
VERTEX
  8
0
 10
777.914071
 20
224.680937
 42
0.062552
  0
VERTEX
  8
0
 10
777.306062
 20
233.249513
 42
0.062068
  0
VERTEX
  8
0
 10
774.588035
 20
241.458078
 42
0.056349
  0
VERTEX
  8
0
 10
769.870601
 20
249.044487
 42
0.042084
  0
VERTEX
  8
0
 10
764.930296
 20
254.315623
 42
0.015869
  0
VERTEX
  8
0
 10
757.206665
 20
260.846699
 42
0.009896
  0
VERTEX
  8
0
 10
745.318533
 20
269.891739
 42
0.002459
  0
VERTEX
  8
0
 10
725.500000
 20
284.211521
 42
-0.004153
  0
VERTEX
  8
0
 10
712.494098
 20
293.676090
 42
-0.011260
  0
VERTEX
  8
0
 10
703.483417
 20
300.668007
 42
-0.013808
  0
VERTEX
  8
0
 10
695.901626
 20
307.185315
 42
-0.009801
  0
VERTEX
  8
0
 10
687.751952
 20
314.888729
 42
0.004186
  0
VERTEX
  8
0
 10
681.172606
 20
321.249205
 42
0.015808
  0
VERTEX
  8
0
 10
676.897653
 20
325.063404
 42
0.016594
  0
VERTEX
  8
0
 10
673.923654
 20
327.389227
 42
0.369544
  0
VERTEX
  8
0
 10
672.910619
 20
327.310619
 42
0.220735
  0
VERTEX
  8
0
 10
672.613028
 20
326.497627
 42
0.074907
  0
VERTEX
  8
0
 10
672.911195
 20
325.241975
 42
0.042666
  0
VERTEX
  8
0
 10
673.817334
 20
323.449049
 42
0.012461
  0
VERTEX
  8
0
 10
675.507652
 20
320.858667
 42
-0.014551
  0
VERTEX
  8
0
 10
677.506030
 20
317.768043
 42
-0.055747
  0
VERTEX
  8
0
 10
678.467187
 20
315.691492
 42
-0.072270
  0
VERTEX
  8
0
 10
678.817830
 20
313.740551
 42
-0.036295
  0
VERTEX
  8
0
 10
678.719972
 20
311.233587
 42
-0.104617
  0
VERTEX
  8
0
 10
677.129312
 20
306.434375
 42
-0.042290
  0
VERTEX
  8
0
 10
673.140902
 20
300.764778
 42
-0.017731
  0
VERTEX
  8
0
 10
665.177640
 20
291.920763
 42
-0.001983
  0
VERTEX
  8
0
 10
646.267233
 20
272.514860
 42
-0.004808
  0
VERTEX
  8
0
 10
629.103210
 20
255.373149
 42
-0.022821
  0
VERTEX
  8
0
 10
618.753706
 20
246.120570
 42
-0.040633
  0
VERTEX
  8
0
 10
611.051282
 20
240.821150
 42
-0.071615
  0
VERTEX
  8
0
 10
603.888485
 20
237.973248
 42
-0.071186
  0
VERTEX
  8
0
 10
596.202668
 20
237.253964
 42
-0.066764
  0
VERTEX
  8
0
 10
588.444226
 20
238.682991
 42
-0.064090
  0
VERTEX
  8
0
 10
581.061537
 20
242.190088
 42
-0.057103
  0
VERTEX
  8
0
 10
574.483451
 20
247.570421
 42
-0.062668
  0
VERTEX
  8
0
 10
568.867956
 20
255.019365
 42
-0.081278
  0
VERTEX
  8
0
 10
565.870992
 20
263.015473
 42
-0.088828
  0
VERTEX
  8
0
 10
565.718021
 20
270.978023
 42
-0.093297
  0
VERTEX
  8
0
 10
568.359377
 20
278.350257
 42
-0.055006
  0
VERTEX
  8
0
 10
572.357846
 20
283.720718
 42
-0.001683
  0
VERTEX
  8
0
 10
591.313494
 20
303.935760
 42
-0.003757
  0
VERTEX
  8
0
 10
610.946419
 20
324.421763
 42
-0.006353
  0
VERTEX
  8
0
 10
627.739667
 20
341.250000
 42
-0.004969
  0
VERTEX
  8
0
 10
633.499951
 20
346.766632
 42
-0.031842
  0
VERTEX
  8
0
 10
636.612648
 20
349.336679
 42
-0.065845
  0
VERTEX
  8
0
 10
638.910952
 20
350.577467
 42
-0.091134
  0
VERTEX
  8
0
 10
641.209885
 20
351.000000
 42
-0.092560
  0
VERTEX
  8
0
 10
644.092352
 20
350.461788
 42
-0.039051
  0
VERTEX
  8
0
 10
647.657738
 20
348.751589
 42
-0.038068
  0
VERTEX
  8
0
 10
651.153191
 20
346.352973
 42
-0.051141
  0
VERTEX
  8
0
 10
653.882679
 20
343.654393
 42
0.039339
  0
VERTEX
  8
0
 10
654.645704
 20
342.863609
 42
0.138977
  0
VERTEX
  8
0
 10
655.275605
 20
342.560544
 42
0.160202
  0
VERTEX
  8
0
 10
655.916042
 20
342.654358
 42
0.057456
  0
VERTEX
  8
0
 10
656.698262
 20
343.164543
 42
0.407948
  0
VERTEX
  8
0
 10
656.836007
 20
344.492025
 42
0.014917
  0
VERTEX
  8
0
 10
653.247483
 20
348.742833
 42
0.011739
  0
VERTEX
  8
0
 10
646.875021
 20
355.522789
 42
0.001796
  0
VERTEX
  8
0
 10
633.823237
 20
368.676874
 42
0.001346
  0
VERTEX
  8
0
 10
624.453332
 20
378.002310
 42
0.002196
  0
VERTEX
  8
0
 10
616.450537
 20
385.855082
 42
0.000275
  0
VERTEX
  8
0
 10
609.297400
 20
392.805073
 42
0.195029
  0
VERTEX
  8
0
 10
608.816671
 20
393.000000
 42
0.119461
  0
VERTEX
  8
0
 10
608.501198
 20
392.923535
 42
0.048453
  0
VERTEX
  8
0
 10
608.126958
 20
392.682380
 42
0.044310
  0
VERTEX
  8
0
 10
607.757137
 20
392.332419
 42
0.042738
  0
SEQEND
  0
POLYLINE
  8
0
 66
1
 70
1
  0
VERTEX
  8
0
 10
739.826297
 20
264.064896
 42
-0.061307
  0
VERTEX
  8
0
 10
746.669374
 20
256.781836
 42
-0.095958
  0
VERTEX
  8
0
 10
750.323972
 20
249.028476
 42
-0.101895
  0
VERTEX
  8
0
 10
750.702410
 20
240.816833
 42
-0.076744
  0
VERTEX
  8
0
 10
747.936478
 20
232.188795
 42
-0.057396
  0
VERTEX
  8
0
 10
743.550155
 20
225.465690
 42
-0.067575
  0
VERTEX
  8
0
 10
737.956383
 20
220.326118
 42
-0.072059
  0
VERTEX
  8
0
 10
731.526242
 20
217.105862
 42
-0.080278
  0
VERTEX
  8
0
 10
724.682906
 20
216.000000
 42
-0.090890
  0
VERTEX
  8
0
 10
719.858954
 20
216.884199
 42
-0.019393
  0
VERTEX
  8
0
 10
711.978735
 20
220.228395
 42
-0.012873
  0
VERTEX
  8
0
 10
704.258321
 20
224.110078
 42
-0.276538
  0
VERTEX
  8
0
 10
703.000000
 20
226.211226
 42
-0.154027
  0
VERTEX
  8
0
 10
703.523727
 20
227.871008
 42
-0.000393
  0
VERTEX
  8
0
 10
717.711137
 20
248.080010
 42
-0.000278
  0
VERTEX
  8
0
 10
732.065951
 20
268.469216
 42
-0.243871
  0
VERTEX
  8
0
 10
733.089475
 20
269.000000
 42
-0.154225
  0
VERTEX
  8
0
 10
733.608435
 20
268.836026
 42
-0.005041
  0
VERTEX
  8
0
 10
735.401177
 20
267.550313
 42
-0.009223
  0
VERTEX
  8
0
 10
737.495476
 20
265.955937
 42
-0.006235
  0
SEQEND
  0
POLYLINE
  8
0
 66
1
 70
1
  0
VERTEX
  8
0
 10
703.660202
 20
215.171207
 42
-0.030157
  0
VERTEX
  8
0
 10
710.583067
 20
208.980927
 42
-0.061682
  0
VERTEX
  8
0
 10
715.028906
 20
203.225282
 42
-0.073299
  0
VERTEX
  8
0
 10
717.467642
 20
197.261202
 42
-0.062308
  0
VERTEX
  8
0
 10
718.264847
 20
190.500000
 42
-0.098537
  0
VERTEX
  8
0
 10
715.777558
 20
178.448286
 42
-0.091845
  0
VERTEX
  8
0
 10
708.835643
 20
167.924957
 42
-0.097203
  0
VERTEX
  8
0
 10
698.981423
 20
161.027677
 42
-0.127513
  0
VERTEX
  8
0
 10
688.184665
 20
159.249539
 42
-0.047854
  0
VERTEX
  8
0
 10
683.064312
 20
160.213400
 42
-0.037750
  0
VERTEX
  8
0
 10
677.777851
 20
162.186128
 42
-0.039007
  0
VERTEX
  8
0
 10
673.152664
 20
164.776917
 42
-0.079090
  0
VERTEX
  8
0
 10
670.098652
 20
167.601714
 42
-0.131552
  0
VERTEX
  8
0
 10
668.326198
 20
171.737186
 42
-0.135363
  0
VERTEX
  8
0
 10
668.884951
 20
176.156027
 42
-0.048521
  0
VERTEX
  8
0
 10
672.454970
 20
182.819604
 42
-0.004785
  0
VERTEX
  8
0
 10
682.709651
 20
197.861257
 42
-0.002091
  0
VERTEX
  8
0
 10
688.399667
 20
205.965699
 42
-0.003405
  0
VERTEX
  8
0
 10
693.304130
 20
212.790494
 42
-0.000568
  0
VERTEX
  8
0
 10
697.677948
 20
218.775917
 42
-0.239053
  0
VERTEX
  8
0
 10
698.119854
 20
219.000000
 42
-0.146659
  0
VERTEX
  8
0
 10
698.569097
 20
218.865333
 42
-0.005557
  0
VERTEX
  8
0
 10
700.036308
 20
217.875292
 42
-0.009586
  0
VERTEX
  8
0
 10
701.754947
 20
216.638239
 42
-0.006560
  0
SEQEND
  0
POLYLINE
  8
0
 66
1
 70
1
  0
VERTEX
  8
0
 10
1636.580219
 20
329.129796
 42
0.216754
  0
VERTEX
  8
0
 10
1636.495916
 20
328.467835
 42
0.000198
  0
VERTEX
  8
0
 10
1641.234777
 20
313.182455
 42
0.001935
  0
VERTEX
  8
0
 10
1646.615461
 20
296.085027
 42
0.001179
  0
VERTEX
  8
0
 10
1653.097276
 20
275.927890
 42
-0.000438
  0
VERTEX
  8
0
 10
1668.360208
 20
228.703392
 42
-0.005636
  0
VERTEX
  8
0
 10
1673.851900
 20
210.978756
 42
-0.014779
  0
VERTEX
  8
0
 10
1676.486579
 20
201.059861
 42
-0.051606
  0
VERTEX
  8
0
 10
1677.323872
 20
194.500000
 42
-0.049824
  0
VERTEX
  8
0
 10
1676.874431
 20
188.576785
 42
-0.071663
  0
VERTEX
  8
0
 10
1675.230557
 20
183.589169
 42
-0.086585
  0
VERTEX
  8
0
 10
1672.570607
 20
179.972969
 42
-0.125865
  0
VERTEX
  8
0
 10
1669.137350
 20
178.036985
 42
-0.032544
  0
VERTEX
  8
0
 10
1667.262706
 20
177.660939
 42
-0.035269
  0
VERTEX
  8
0
 10
1665.405116
 20
177.544884
 42
-0.034874
  0
VERTEX
  8
0
 10
1663.531000
 20
177.691049
 42
-0.030471
  0
VERTEX
  8
0
 10
1661.606912
 20
178.098091
 42
-0.029383
  0
VERTEX
  8
0
 10
1656.744650
 20
179.753494
 42
-0.000532
  0
VERTEX
  8
0
 10
1631.416935
 20
190.104335
 42
-0.000526
  0
VERTEX
  8
0
 10
1606.091060
 20
200.517021
 42
-0.029777
  0
VERTEX
  8
0
 10
1601.520069
 20
202.728831
 42
-0.130605
  0
VERTEX
  8
0
 10
1600.844492
 20
203.383844
 42
-0.217384
  0
VERTEX
  8
0
 10
1600.756708
 20
204.157342
 42
-0.081106
  0
VERTEX
  8
0
 10
1601.352605
 20
205.310499
 42
-0.009957
  0
VERTEX
  8
0
 10
1603.095544
 20
207.562145
 42
0.034795
  0
VERTEX
  8
0
 10
1606.897011
 20
213.011849
 42
0.047450
  0
VERTEX
  8
0
 10
1609.472134
 20
218.415805
 42
0.048333
  0
VERTEX
  8
0
 10
1610.950708
 20
224.128340
 42
0.038093
  0
VERTEX
  8
0
 10
1611.464940
 20
230.500000
 42
0.013016
  0
VERTEX
  8
0
 10
1611.368376
 20
234.959778
 42
0.037001
  0
VERTEX
  8
0
 10
1610.991391
 20
238.043449
 42
0.042706
  0
VERTEX
  8
0
 10
1610.200512
 20
240.783734
 42
0.022550
  0
VERTEX
  8
0
 10
1608.783884
 20
244.030416
 42
0.047417
  0
VERTEX
  8
0
 10
1604.130603
 20
251.598300
 42
0.063549
  0
VERTEX
  8
0
 10
1598.511477
 20
257.358824
 42
0.064976
  0
VERTEX
  8
0
 10
1591.730919
 20
261.433668
 42
0.052610
  0
VERTEX
  8
0
 10
1583.630730
 20
263.994773
 42
0.089482
  0
VERTEX
  8
0
 10
1572.725313
 20
264.241512
 42
0.063388
  0
VERTEX
  8
0
 10
1560.941286
 20
260.821383
 42
0.034396
  0
VERTEX
  8
0
 10
1544.839653
 20
252.482734
 42
0.006925
  0
VERTEX
  8
0
 10
1517.500000
 20
235.324576
 42
-0.000063
  0
VERTEX
  8
0
 10
1509.304670
 20
230.023097
 42
-0.000065
  0
VERTEX
  8
0
 10
1501.218709
 20
224.795298
 42
-0.000063
  0
VERTEX
  8
0
 10
1494.226027
 20
220.276869
 42
-0.000286
  0
VERTEX
  8
0
 10
1490.159436
 20
217.653196
 42
0.007105
  0
VERTEX
  8
0
 10
1486.244617
 20
215.051158
 42
0.046738
  0
VERTEX
  8
0
 10
1484.437208
 20
213.546534
 42
0.130060
  0
VERTEX
  8
0
 10
1483.804716
 20
212.453276
 42
0.244331
  0
VERTEX
  8
0
 10
1484.015351
 20
211.481503
 42
0.112234
  0
VERTEX
  8
0
 10
1484.837931
 20
210.850263
 42
0.156257
  0
VERTEX
  8
0
 10
1485.752989
 20
210.738999
 42
0.073793
  0
VERTEX
  8
0
 10
1487.058184
 20
211.195308
 42
0.011612
  0
VERTEX
  8
0
 10
1489.443773
 20
212.519917
 42
-0.054166
  0
VERTEX
  8
0
 10
1493.882159
 20
214.511911
 42
-0.091255
  0
VERTEX
  8
0
 10
1497.916147
 20
215.045997
 42
-0.103307
  0
VERTEX
  8
0
 10
1501.524444
 20
214.100552
 42
-0.086663
  0
VERTEX
  8
0
 10
1504.714417
 20
211.750000
 42
-0.050321
  0
VERTEX
  8
0
 10
1508.870633
 20
206.420243
 42
-0.000520
  0
VERTEX
  8
0
 10
1534.089193
 20
166.259659
 42
-0.000635
  0
VERTEX
  8
0
 10
1558.911825
 20
126.526016
 42
-0.040360
  0
VERTEX
  8
0
 10
1562.676659
 20
119.231437
 42
-0.074359
  0
VERTEX
  8
0
 10
1563.587583
 20
115.623895
 42
-0.110876
  0
VERTEX
  8
0
 10
1563.193190
 20
112.406109
 42
-0.089123
  0
VERTEX
  8
0
 10
1561.343688
 20
109.180259
 42
-0.035046
  0
VERTEX
  8
0
 10
1557.769839
 20
105.482974
 42
0.011705
  0
VERTEX
  8
0
 10
1555.394174
 20
103.244298
 42
0.045115
  0
VERTEX
  8
0
 10
1554.086760
 20
101.696798
 42
0.090548
  0
VERTEX
  8
0
 10
1553.577857
 20
100.589288
 42
0.264823
  0
VERTEX
  8
0
 10
1553.792136
 20
99.807864
 42
0.103383
  0
VERTEX
  8
0
 10
1554.440710
 20
99.383527
 42
0.121068
  0
VERTEX
  8
0
 10
1555.167893
 20
99.286706
 42
0.085024
  0
VERTEX
  8
0
 10
1556.052445
 20
99.539374
 42
0.030654
  0
VERTEX
  8
0
 10
1557.198653
 20
100.179259
 42
-0.000309
  0
VERTEX
  8
0
 10
1558.872541
 20
101.251780
 42
-0.000008
  0
VERTEX
  8
0
 10
1566.534917
 20
106.154501
 42
-0.000017
  0
VERTEX
  8
0
 10
1575.524723
 20
111.905956
 42
-0.000011
  0
VERTEX
  8
0
 10
1585.750000
 20
118.447033
 42
0.002309
  0
VERTEX
  8
0
 10
1595.814029
 20
124.950329
 42
0.003760
  0
VERTEX
  8
0
 10
1604.289062
 20
130.573801
 42
0.000675
  0
VERTEX
  8
0
 10
1611.701604
 20
135.587515
 42
0.248628
  0
VERTEX
  8
0
 10
1612.000000
 20
136.150505
 42
0.265332
  0
VERTEX
  8
0
 10
1611.429874
 20
137.149234
 42
0.156421
  0
VERTEX
  8
0
 10
1610.050745
 20
137.462048
 42
0.071695
  0
VERTEX
  8
0
 10
1607.741254
 20
136.920258
 42
0.024207
  0
VERTEX
  8
0
 10
1604.580522
 20
135.501271
 42
-0.098140
  0
VERTEX
  8
0
 10
1597.504421
 20
133.506858
 42
-0.207130
  0
VERTEX
  8
0
 10
1592.211863
 20
135.316210
 42
-0.065177
  0
VERTEX
  8
0
 10
1586.187917
 20
142.428567
 42
-0.004169
  0
VERTEX
  8
0
 10
1571.587175
 20
165.500000
 42
0.000000
  0
VERTEX
  8
0
 10
1564.132374
 20
177.500000
 42
0.000000
  0
VERTEX
  8
0
 10
1566.316187
 20
179.252976
 42
-0.025025
  0
VERTEX
  8
0
 10
1567.298633
 20
179.963818
 42
-0.018704
  0
VERTEX
  8
0
 10
1568.446005
 20
180.649888
 42
-0.019016
  0
VERTEX
  8
0
 10
1569.578270
 20
181.215781
 42
-0.040359
  0
VERTEX
  8
0
 10
1570.500000
 20
181.546794
 42
-0.155284
  0
VERTEX
  8
0
 10
1572.158729
 20
181.473757
 42
-0.002781
  0
VERTEX
  8
0
 10
1580.588326
 20
178.323203
 42
-0.005947
  0
VERTEX
  8
0
 10
1591.187729
 20
174.149409
 42
-0.002679
  0
VERTEX
  8
0
 10
1605.000000
 20
168.433301
 42
0.000511
  0
VERTEX
  8
0
 10
1617.574170
 20
163.165575
 42
0.000794
  0
VERTEX
  8
0
 10
1628.429957
 20
158.650991
 42
0.000220
  0
VERTEX
  8
0
 10
1637.897154
 20
154.736380
 42
0.027037
  0
VERTEX
  8
0
 10
1639.123259
 20
154.305995
 42
0.211183
  0
VERTEX
  8
0
 10
1641.124475
 20
154.573185
 42
0.001130
  0
VERTEX
  8
0
 10
1658.205177
 20
165.074608
 42
0.000871
  0
VERTEX
  8
0
 10
1675.409183
 20
175.746916
 42
0.482812
  0
VERTEX
  8
0
 10
1675.530325
 20
176.803009
 42
-0.417448
  0
VERTEX
  8
0
 10
1675.531898
 20
177.088356
 42
-0.000523
  0
VERTEX
  8
0
 10
1680.024609
 20
181.473839
 42
-0.003604
  0
VERTEX
  8
0
 10
1685.162715
 20
186.407154
 42
-0.002158
  0
VERTEX
  8
0
 10
1691.335264
 20
192.198461
 42
0.001775
  0
VERTEX
  8
0
 10
1697.555531
 20
198.025582
 42
0.002796
  0
VERTEX
  8
0
 10
1702.849474
 20
203.076602
 42
0.000703
  0
VERTEX
  8
0
 10
1707.441561
 20
207.519789
 42
0.110310
  0
VERTEX
  8
0
 10
1707.833158
 20
208.116532
 42
0.358648
  0
VERTEX
  8
0
 10
1707.479112
 20
209.157943
 42
0.190804
  0
VERTEX
  8
0
 10
1706.050404
 20
209.413935
 42
0.067938
  0
VERTEX
  8
0
 10
1703.335038
 20
208.467293
 42
0.030315
  0
VERTEX
  8
0
 10
1700.064757
 20
206.543578
 42
-0.033039
  0
VERTEX
  8
0
 10
1695.484184
 20
203.882541
 42
-0.120162
  0
VERTEX
  8
0
 10
1692.224630
 20
203.150024
 42
-0.143826
  0
VERTEX
  8
0
 10
1689.331865
 20
204.056958
 42
-0.055271
  0
VERTEX
  8
0
 10
1686.078295
 20
206.797035
 42
-0.041082
  0
VERTEX
  8
0
 10
1684.206733
 20
209.119422
 42
-0.030309
  0
VERTEX
  8
0
 10
1682.520802
 20
211.960270
 42
-0.024113
  0
VERTEX
  8
0
 10
1680.869620
 20
215.591377
 42
-0.011656
  0
VERTEX
  8
0
 10
1679.093286
 20
220.379411
 42
-0.003566
  0
VERTEX
  8
0
 10
1676.962289
 20
226.707774
 42
-0.047586
  0
VERTEX
  8
0
 10
1676.420886
 20
229.099876
 42
-0.137622
  0
VERTEX
  8
0
 10
1676.638595
 20
230.579952
 42
-0.098848
  0
VERTEX
  8
0
 10
1677.610154
 20
231.950605
 42
-0.003051
  0
VERTEX
  8
0
 10
1688.602286
 20
242.211615
 42
-0.003196
  0
VERTEX
  8
0
 10
1699.551130
 20
252.179154
 42
-0.000494
  0
VERTEX
  8
0
 10
1710.095634
 20
261.637241
 42
-0.184592
  0
VERTEX
  8
0
 10
1711.044747
 20
262.000000
 42
-0.103598
  0
VERTEX
  8
0
 10
1711.734682
 20
261.855498
 42
-0.001653
  0
VERTEX
  8
0
 10
1715.405868
 20
260.232643
 42
-0.004272
  0
VERTEX
  8
0
 10
1719.664959
 20
258.289248
 42
-0.002810
  0
VERTEX
  8
0
 10
1724.534413
 20
255.983467
 42
-0.010629
  0
VERTEX
  8
0
 10
1734.226666
 20
251.070898
 42
-0.104348
  0
VERTEX
  8
0
 10
1737.716865
 20
248.141172
 42
-0.228455
  0
VERTEX
  8
0
 10
1738.393916
 20
245.045764
 42
-0.074192
  0
VERTEX
  8
0
 10
1736.600493
 20
240.581266
 42
-0.019522
  0
VERTEX
  8
0
 10
1735.439041
 20
238.765760
 42
-0.020216
  0
VERTEX
  8
0
 10
1734.152232
 20
237.068092
 42
-0.020412
  0
VERTEX
  8
0
 10
1732.923493
 20
235.694619
 42
-0.077340
  0
VERTEX
  8
0
 10
1732.005863
 20
235.003138
 42
0.141210
  0
VERTEX
  8
0
 10
1730.983634
 20
234.008015
 42
0.140662
  0
VERTEX
  8
0
 10
1730.645751
 20
232.619956
 42
0.174887
  0
VERTEX
  8
0
 10
1731.114713
 20
231.469231
 42
0.212499
  0
VERTEX
  8
0
 10
1732.168935
 20
231.000000
 42
0.191003
  0
VERTEX
  8
0
 10
1734.610864
 20
231.968152
 42
0.000747
  0
VERTEX
  8
0
 10
1756.682121
 20
252.795664
 42
0.000559
  0
VERTEX
  8
0
 10
1778.924476
 20
273.894701
 42
0.303064
  0
VERTEX
  8
0
 10
1779.314669
 20
275.622368
 42
0.134924
  0
VERTEX
  8
0
 10
1778.617772
 20
276.568932
 42
0.176896
  0
VERTEX
  8
0
 10
1777.605723
 20
276.901803
 42
0.113501
  0
VERTEX
  8
0
 10
1776.251971
 20
276.543935
 42
0.040794
  0
VERTEX
  8
0
 10
1774.558870
 20
275.468197
 42
-0.118031
  0
VERTEX
  8
0
 10
1772.065616
 20
274.376878
 42
-0.047226
  0
VERTEX
  8
0
 10
1768.327893
 20
274.065069
 42
-0.042043
  0
VERTEX
  8
0
 10
1763.946564
 20
274.483385
 42
-0.035382
  0
VERTEX
  8
0
 10
1759.428139
 20
275.636937
 42
-0.022873
  0
VERTEX
  8
0
 10
1755.902992
 20
276.989768
 42
-0.000556
  0
VERTEX
  8
0
 10
1739.938266
 20
283.990959
 42
-0.001210
  0
VERTEX
  8
0
 10
1721.240645
 20
292.269512
 42
-0.000823
  0
VERTEX
  8
0
 10
1700.000000
 20
301.777484
 42
0.000131
  0
VERTEX
  8
0
 10
1655.409519
 20
321.811653
 42
0.003704
  0
VERTEX
  8
0
 10
1643.807446
 20
326.917783
 42
0.006199
  0
VERTEX
  8
0
 10
1637.652848
 20
329.482180
 42
0.364919
  0
SEQEND
  0
POLYLINE
  8
0
 66
1
 70
1
  0
VERTEX
  8
0
 10
1682.118148
 20
275.351550
 42
0.000000
  0
VERTEX
  8
0
 10
1703.333939
 20
265.602860
 42
0.000000
  0
VERTEX
  8
0
 10
1695.916970
 20
258.769991
 42
-0.000353
  0
VERTEX
  8
0
 10
1692.529642
 20
255.653842
 42
-0.000205
  0
VERTEX
  8
0
 10
1688.453795
 20
251.912678
 42
-0.000204
  0
VERTEX
  8
0
 10
1684.362834
 20
248.163801
 42
-0.000344
  0
VERTEX
  8
0
 10
1680.925736
 20
245.021038
 42
0.000000
  0
VERTEX
  8
0
 10
1673.351472
 20
238.104955
 42
0.000000
  0
VERTEX
  8
0
 10
1665.996035
 20
260.802477
 42
0.000121
  0
VERTEX
  8
0
 10
1663.141375
 20
269.604158
 42
0.000184
  0
VERTEX
  8
0
 10
1660.656172
 20
277.250788
 42
0.000065
  0
VERTEX
  8
0
 10
1658.508297
 20
283.848314
 42
0.004770
  0
VERTEX
  8
0
 10
1658.146690
 20
284.923609
 42
-0.514166
  0
VERTEX
  8
0
 10
1658.594637
 20
285.556557
 42
-0.096546
  0
VERTEX
  8
0
 10
1660.257978
 20
285.241118
 42
-0.012303
  0
VERTEX
  8
0
 10
1664.663878
 20
283.354834
 42
-0.000402
  0
SEQEND
  0
POLYLINE
  8
0
 66
1
 70
1
  0
VERTEX
  8
0
 10
1566.619958
 20
243.710315
 42
-0.068072
  0
VERTEX
  8
0
 10
1570.243194
 20
241.141856
 42
-0.027470
  0
VERTEX
  8
0
 10
1574.442829
 20
236.752136
 42
-0.027002
  0
VERTEX
  8
0
 10
1578.421939
 20
231.564918
 42
-0.035312
  0
VERTEX
  8
0
 10
1581.441394
 20
226.408814
 42
-0.088931
  0
VERTEX
  8
0
 10
1584.723946
 20
215.069455
 42
-0.129076
  0
VERTEX
  8
0
 10
1583.150568
 20
204.821831
 42
-0.107092
  0
VERTEX
  8
0
 10
1576.340249
 20
195.331574
 42
-0.048785
  0
VERTEX
  8
0
 10
1564.008698
 20
186.198310
 42
0.000000
  0
VERTEX
  8
0
 10
1560.168826
 20
183.896619
 42
0.000000
  0
VERTEX
  8
0
 10
1544.670743
 20
208.698310
 42
0.000000
  0
VERTEX
  8
0
 10
1529.172660
 20
233.500000
 42
0.000000
  0
VERTEX
  8
0
 10
1531.836330
 20
235.748477
 42
-0.043336
  0
VERTEX
  8
0
 10
1535.881368
 20
238.602557
 42
-0.017053
  0
VERTEX
  8
0
 10
1541.891186
 20
241.837036
 42
-0.016594
  0
VERTEX
  8
0
 10
1548.004240
 20
244.614384
 42
-0.054896
  0
VERTEX
  8
0
 10
1552.243286
 20
245.849798
 42
-0.039565
  0
VERTEX
  8
0
 10
1555.974851
 20
246.204661
 42
-0.040887
  0
VERTEX
  8
0
 10
1559.674118
 20
245.960139
 42
-0.041279
  0
VERTEX
  8
0
 10
1563.251304
 20
245.121644
 42
-0.042018
  0
SEQEND
  0
POLYLINE
  8
0
 66
1
 70
1
  0
VERTEX
  8
0
 10
820.543266
 20
215.209933
 42
0.207754
  0
VERTEX
  8
0
 10
820.100196
 20
214.086692
 42
0.173053
  0
VERTEX
  8
0
 10
820.576132
 20
212.883492
 42
0.074735
  0
VERTEX
  8
0
 10
822.232965
 20
211.481661
 42
0.017889
  0
VERTEX
  8
0
 10
825.375016
 20
209.694088
 42
-0.024451
  0
VERTEX
  8
0
 10
827.806182
 20
208.268421
 42
-0.033036
  0
VERTEX
  8
0
 10
829.841642
 20
206.736068
 42
-0.037124
  0
VERTEX
  8
0
 10
831.445995
 20
205.131160
 42
-0.054306
  0
VERTEX
  8
0
 10
832.577124
 20
203.486648
 42
-0.144232
  0
VERTEX
  8
0
 10
833.414561
 20
199.509104
 42
-0.056304
  0
VERTEX
  8
0
 10
832.335389
 20
193.941785
 42
-0.013449
  0
VERTEX
  8
0
 10
828.666462
 20
183.260025
 42
-0.000504
  0
VERTEX
  8
0
 10
813.779564
 20
143.559677
 42
-0.002034
  0
VERTEX
  8
0
 10
801.320690
 20
110.840438
 42
-0.026507
  0
VERTEX
  8
0
 10
796.005594
 20
98.967119
 42
-0.082279
  0
VERTEX
  8
0
 10
791.766931
 20
93.251367
 42
-0.146810
  0
VERTEX
  8
0
 10
786.610776
 20
90.586759
 42
-0.039700
  0
VERTEX
  8
0
 10
784.940225
 20
90.408866
 42
-0.021136
  0
VERTEX
  8
0
 10
782.860143
 20
90.441184
 42
-0.020908
  0
VERTEX
  8
0
 10
780.725024
 20
90.654573
 42
-0.030412
  0
VERTEX
  8
0
 10
778.871504
 20
91.034600
 42
0.014282
  0
VERTEX
  8
0
 10
776.706173
 20
91.551820
 42
0.061558
  0
VERTEX
  8
0
 10
775.389220
 20
91.661308
 42
0.114283
  0
VERTEX
  8
0
 10
774.521669
 20
91.423452
 42
0.131258
  0
VERTEX
  8
0
 10
773.898329
 20
90.835493
 42
0.056078
  0
VERTEX
  8
0
 10
773.639276
 20
90.287415
 42
0.068508
  0
VERTEX
  8
0
 10
773.530782
 20
89.731368
 42
0.081658
  0
VERTEX
  8
0
 10
773.582246
 20
89.252511
 42
0.153161
  0
VERTEX
  8
0
 10
773.791641
 20
88.928666
 42
0.083879
  0
VERTEX
  8
0
 10
776.817683
 20
87.173911
 42
0.001370
  0
VERTEX
  8
0
 10
795.243901
 20
80.335037
 42
0.000601
  0
VERTEX
  8
0
 10
814.462891
 20
73.288015
 42
0.229881
  0
VERTEX
  8
0
 10
815.893075
 20
73.433917
 42
0.125914
  0
VERTEX
  8
0
 10
816.775922
 20
74.350390
 42
0.266085
  0
VERTEX
  8
0
 10
816.772185
 20
75.304511
 42
0.125079
  0
VERTEX
  8
0
 10
815.755790
 20
76.346635
 42
0.026498
  0
VERTEX
  8
0
 10
813.506086
 20
77.564136
 42
-0.059588
  0
VERTEX
  8
0
 10
810.148111
 20
79.679259
 42
-0.045635
  0
VERTEX
  8
0
 10
807.037869
 20
82.709342
 42
-0.046989
  0
VERTEX
  8
0
 10
804.647382
 20
86.105423
 42
-0.083690
  0
VERTEX
  8
0
 10
803.470605
 20
89.304995
 42
-0.113534
  0
VERTEX
  8
0
 10
803.632579
 20
93.286900
 42
-0.016264
  0
VERTEX
  8
0
 10
806.053917
 20
101.134406
 42
-0.006707
  0
VERTEX
  8
0
 10
811.240554
 20
115.556865
 42
-0.000459
  0
VERTEX
  8
0
 10
826.529150
 20
156.229657
 42
-0.000862
  0
VERTEX
  8
0
 10
831.858312
 20
170.294121
 42
-0.001447
  0
VERTEX
  8
0
 10
836.389385
 20
182.087681
 42
-0.000093
  0
VERTEX
  8
0
 10
840.482021
 20
192.642883
 42
-0.541805
  0
VERTEX
  8
0
 10
840.654177
 20
192.679156
 42
-0.187551
  0
VERTEX
  8
0
 10
840.775845
 20
192.402711
 42
-0.000025
  0
VERTEX
  8
0
 10
841.607868
 20
173.402380
 42
-0.000642
  0
VERTEX
  8
0
 10
842.500638
 20
152.373505
 42
-0.000387
  0
VERTEX
  8
0
 10
843.507372
 20
127.449500
 42
0.000545
  0
VERTEX
  8
0
 10
844.524684
 20
102.459079
 42
0.000883
  0
VERTEX
  8
0
 10
845.450425
 20
81.211728
 42
0.000110
  0
VERTEX
  8
0
 10
846.312956
 20
62.279724
 42
0.071229
  0
VERTEX
  8
0
 10
846.508820
 20
61.250000
 42
0.060997
  0
VERTEX
  8
0
 10
846.740891
 20
60.772049
 42
0.062019
  0
VERTEX
  8
0
 10
847.080345
 20
60.367188
 42
0.068352
  0
VERTEX
  8
0
 10
847.470830
 20
60.092712
 42
0.119611
  0
VERTEX
  8
0
 10
847.852841
 20
60.000000
 42
0.204021
  0
VERTEX
  8
0
 10
848.479607
 20
60.266854
 42
0.000137
  0
VERTEX
  8
0
 10
861.642662
 20
73.964796
 42
0.001572
  0
VERTEX
  8
0
 10
876.290250
 20
89.312273
 42
0.000957
  0
VERTEX
  8
0
 10
893.511162
 20
107.539731
 42
-0.000695
  0
VERTEX
  8
0
 10
910.692421
 20
125.744317
 42
-0.001159
  0
VERTEX
  8
0
 10
925.211257
 20
141.014110
 42
-0.000054
  0
VERTEX
  8
0
 10
938.319951
 20
154.734011
 42
-0.420869
  0
VERTEX
  8
0
 10
938.596191
 20
154.737142
 42
-0.294250
  0
VERTEX
  8
0
 10
938.754394
 20
154.005857
 42
-0.000035
  0
VERTEX
  8
0
 10
920.998271
 20
106.741516
 42
-0.000288
  0
VERTEX
  8
0
 10
904.172808
 20
62.042192
 42
-0.027059
  0
VERTEX
  8
0
 10
901.390166
 20
55.721139
 42
-0.059956
  0
VERTEX
  8
0
 10
898.394718
 20
51.233421
 42
-0.122442
  0
VERTEX
  8
0
 10
894.967412
 20
48.792874
 42
-0.120079
  0
VERTEX
  8
0
 10
890.749017
 20
48.215141
 42
-0.056433
  0
VERTEX
  8
0
 10
885.338279
 20
49.400404
 42
0.016659
  0
VERTEX
  8
0
 10
883.186294
 20
50.054509
 42
0.039168
  0
VERTEX
  8
0
 10
881.536374
 20
50.360659
 42
0.054906
  0
VERTEX
  8
0
 10
880.329704
 20
50.355194
 42
0.169384
  0
VERTEX
  8
0
 10
879.605556
 20
50.005556
 42
0.074326
  0
VERTEX
  8
0
 10
879.247324
 20
49.521406
 42
0.115474
  0
VERTEX
  8
0
 10
879.115012
 20
49.021443
 42
0.121011
  0
VERTEX
  8
0
 10
879.220486
 20
48.531565
 42
0.086787
  0
VERTEX
  8
0
 10
879.550000
 20
48.075866
 42
0.101475
  0
VERTEX
  8
0
 10
882.414590
 20
46.242423
 42
0.000595
  0
VERTEX
  8
0
 10
912.029938
 20
34.895467
 42
0.000300
  0
VERTEX
  8
0
 10
942.378507
 20
23.329796
 42
0.233373
  0
VERTEX
  8
0
 10
943.970080
 20
23.481509
 42
0.168101
  0
VERTEX
  8
0
 10
944.735371
 20
24.419913
 42
0.273368
  0
VERTEX
  8
0
 10
944.554051
 20
25.401572
 42
0.086851
  0
VERTEX
  8
0
 10
943.089310
 20
26.588920
 42
0.013226
  0
VERTEX
  8
0
 10
939.742143
 20
28.337729
 42
-0.047462
  0
VERTEX
  8
0
 10
935.569613
 20
30.895162
 42
-0.084240
  0
VERTEX
  8
0
 10
932.804634
 20
33.815986
 42
-0.098999
  0
VERTEX
  8
0
 10
931.432436
 20
37.130075
 42
-0.089360
  0
VERTEX
  8
0
 10
931.369431
 20
40.844951
 42
-0.048660
  0
VERTEX
  8
0
 10
932.741070
 20
46.031745
 42
-0.000305
  0
VERTEX
  8
0
 10
949.546081
 20
91.172592
 42
-0.000483
  0
VERTEX
  8
0
 10
965.993629
 20
135.141071
 42
-0.029589
  0
VERTEX
  8
0
 10
969.394954
 20
142.796864
 42
-0.083845
  0
VERTEX
  8
0
 10
972.215750
 20
146.549738
 42
-0.123903
  0
VERTEX
  8
0
 10
975.788515
 20
148.559472
 42
-0.103099
  0
VERTEX
  8
0
 10
980.388468
 20
148.837547
 42
-0.045858
  0
VERTEX
  8
0
 10
986.321861
 20
147.405998
 42
-0.015347
  0
VERTEX
  8
0
 10
989.238927
 20
146.311042
 42
-0.125265
  0
VERTEX
  8
0
 10
990.372615
 20
145.468702
 42
-0.147867
  0
VERTEX
  8
0
 10
990.873679
 20
144.246064
 42
-0.024081
  0
VERTEX
  8
0
 10
990.995983
 20
141.655998
 42
-0.040872
  0
VERTEX
  8
0
 10
990.498057
 20
135.646267
 42
-0.000334
  0
VERTEX
  8
0
 10
982.697904
 20
88.811366
 42
-0.000544
  0
VERTEX
  8
0
 10
975.050733
 20
43.387657
 42
-0.023794
  0
VERTEX
  8
0
 10
972.979855
 20
33.925185
 42
-0.083144
  0
VERTEX
  8
0
 10
971.248099
 20
30.138594
 42
-0.119151
  0
VERTEX
  8
0
 10
968.530577
 20
27.663397
 42
-0.100300
  0
VERTEX
  8
0
 10
964.607784
 20
26.442830
 42
-0.046552
  0
VERTEX
  8
0
 10
959.250000
 20
26.396297
 42
0.007361
  0
VERTEX
  8
0
 10
955.686669
 20
26.644812
 42
0.061365
  0
VERTEX
  8
0
 10
954.075835
 20
26.535641
 42
0.179802
  0
VERTEX
  8
0
 10
953.303633
 20
26.066388
 42
0.168813
  0
VERTEX
  8
0
 10
953.000000
 20
25.192701
 42
0.349284
  0
VERTEX
  8
0
 10
953.968340
 20
23.975636
 42
0.006003
  0
VERTEX
  8
0
 10
962.833594
 20
22.043011
 42
0.006586
  0
VERTEX
  8
0
 10
977.456538
 20
19.238841
 42
0.000808
  0
VERTEX
  8
0
 10
1009.517241
 20
13.580901
 42
0.000739
  0
VERTEX
  8
0
 10
1031.212571
 20
9.821395
 42
0.001224
  0
VERTEX
  8
0
 10
1049.533621
 20
6.720658
 42
0.000070
  0
VERTEX
  8
0
 10
1066.026753
 20
3.973194
 42
0.261904
  0
VERTEX
  8
0
 10
1066.378579
 20
4.100575
 42
0.101919
  0
VERTEX
  8
0
 10
1066.799135
 20
4.856002
 42
0.000095
  0
VERTEX
  8
0
 10
1072.836628
 20
24.056493
 42
0.000125
  0
VERTEX
  8
0
 10
1078.826999
 20
43.136526
 42
0.076138
  0
VERTEX
  8
0
 10
1079.000000
 20
44.266050
 42
0.191134
  0
VERTEX
  8
0
 10
1078.906051
 20
44.502839
 42
0.043667
  0
VERTEX
  8
0
 10
1078.578147
 20
44.795160
 42
0.039131
  0
VERTEX
  8
0
 10
1078.113742
 20
45.087999
 42
0.029499
  0
VERTEX
  8
0
 10
1077.563906
 20
45.337103
 42
0.239224
  0
VERTEX
  8
0
 10
1076.739418
 20
45.251700
 42
0.064713
  0
VERTEX
  8
0
 10
1075.706105
 20
44.377665
 42
0.041388
  0
VERTEX
  8
0
 10
1074.468990
 20
42.772880
 42
0.015052
  0
VERTEX
  8
0
 10
1072.981396
 20
40.313042
 42
-0.033525
  0
VERTEX
  8
0
 10
1069.123392
 20
34.435133
 42
-0.036296
  0
VERTEX
  8
0
 10
1064.606756
 20
29.289755
 42
-0.037621
  0
VERTEX
  8
0
 10
1059.561139
 20
25.017286
 42
-0.042511
  0
VERTEX
  8
0
 10
1054.126029
 20
21.741280
 42
-0.018599
  0
VERTEX
  8
0
 10
1049.844511
 20
19.827866
 42
-0.053872
  0
VERTEX
  8
0
 10
1046.725648
 20
18.946403
 42
-0.036804
  0
VERTEX
  8
0
 10
1042.899325
 20
18.584800
 42
-0.005263
  0
VERTEX
  8
0
 10
1035.021027
 20
18.505043
 42
-0.020648
  0
VERTEX
  8
0
 10
1021.280154
 20
19.078269
 42
-0.071434
  0
VERTEX
  8
0
 10
1012.622734
 20
21.065274
 42
-0.131893
  0
VERTEX
  8
0
 10
1007.805023
 20
24.581658
 42
-0.170745
  0
VERTEX
  8
0
 10
1005.994069
 20
29.704545
 42
-0.039369
  0
VERTEX
  8
0
 10
1006.435022
 20
35.409837
 42
-0.001695
  0
VERTEX
  8
0
 10
1009.625463
 20
55.277744
 42
-0.000584
  0
VERTEX
  8
0
 10
1013.129753
 20
76.482320
 42
-0.137295
  0
VERTEX
  8
0
 10
1013.959247
 20
78.254236
 42
-0.235606
  0
VERTEX
  8
0
 10
1014.478356
 20
78.472068
 42
-0.018627
  0
VERTEX
  8
0
 10
1016.009361
 20
78.314260
 42
-0.022170
  0
VERTEX
  8
0
 10
1017.903581
 20
77.961159
 42
-0.015012
  0
VERTEX
  8
0
 10
1020.026683
 20
77.399435
 42
-0.088765
  0
VERTEX
  8
0
 10
1026.996281
 20
73.896401
 42
-0.098565
  0
VERTEX
  8
0
 10
1032.022762
 20
68.296595
 42
-0.084084
  0
VERTEX
  8
0
 10
1035.046900
 20
60.435119
 42
-0.047559
  0
VERTEX
  8
0
 10
1036.113601
 20
50.255663
 42
0.008151
  0
VERTEX
  8
0
 10
1036.214516
 20
46.324225
 42
0.052645
  0
VERTEX
  8
0
 10
1036.505139
 20
44.363585
 42
0.121421
  0
VERTEX
  8
0
 10
1037.084547
 20
43.287719
 42
0.145859
  0
VERTEX
  8
0
 10
1038.063442
 20
42.693661
 42
0.089346
  0
VERTEX
  8
0
 10
1039.016164
 20
42.619620
 42
0.183490
  0
VERTEX
  8
0
 10
1039.675770
 20
42.949386
 42
0.115910
  0
VERTEX
  8
0
 10
1040.141843
 20
43.775886
 42
0.026443
  0
VERTEX
  8
0
 10
1040.510202
 20
45.350537
 42
0.002304
  0
VERTEX
  8
0
 10
1044.106678
 20
66.014740
 42
0.001803
  0
VERTEX
  8
0
 10
1047.825512
 20
88.472336
 42
0.000149
  0
VERTEX
  8
0
 10
1051.520240
 20
111.337943
 42
0.179064
  0
VERTEX
  8
0
 10
1051.340601
 20
112.250000
 42
0.243732
  0
VERTEX
  8
0
 10
1050.194286
 20
112.943091
 42
0.222278
  0
VERTEX
  8
0
 10
1048.898862
 20
112.438002
 42
0.084830
  0
VERTEX
  8
0
 10
1047.484053
 20
110.335541
 42
0.025460
  0
VERTEX
  8
0
 10
1046.076039
 20
106.728497
 42
-0.046055
  0
VERTEX
  8
0
 10
1041.928647
 20
97.271561
 42
-0.086586
  0
VERTEX
  8
0
 10
1036.711571
 20
90.794696
 42
-0.100641
  0
VERTEX
  8
0
 10
1030.200476
 20
87.072162
 42
-0.081311
  0
VERTEX
  8
0
 10
1022.229312
 20
85.814422
 42
-0.006684
  0
VERTEX
  8
0
 10
1019.737930
 20
85.862104
 42
-0.009994
  0
VERTEX
  8
0
 10
1017.563587
 20
85.976344
 42
-0.005402
  0
VERTEX
  8
0
 10
1015.747842
 20
86.127915
 42
-0.174569
  0
VERTEX
  8
0
 10
1015.352984
 20
86.313682
 42
-0.241952
  0
VERTEX
  8
0
 10
1015.112902
 20
87.061580
 42
-0.000111
  0
VERTEX
  8
0
 10
1019.491165
 20
113.455754
 42
-0.000155
  0
VERTEX
  8
0
 10
1023.856526
 20
139.685834
 42
-0.156298
  0
VERTEX
  8
0
 10
1024.391012
 20
140.724345
 42
-0.241428
  0
VERTEX
  8
0
 10
1024.636964
 20
140.803567
 42
-0.000555
  0
VERTEX
  8
0
 10
1028.517396
 20
140.164235
 42
-0.003376
  0
VERTEX
  8
0
 10
1032.909151
 20
139.405144
 42
-0.002071
  0
VERTEX
  8
0
 10
1038.074893
 20
138.454203
 42
-0.035416
  0
VERTEX
  8
0
 10
1055.033971
 20
133.997292
 42
-0.102341
  0
VERTEX
  8
0
 10
1065.449772
 20
127.869748
 42
-0.122054
  0
VERTEX
  8
0
 10
1071.534101
 20
118.824774
 42
-0.061866
  0
VERTEX
  8
0
 10
1074.623966
 20
105.366075
 42
0.009726
  0
VERTEX
  8
0
 10
1075.044106
 20
101.926521
 42
0.058849
  0
VERTEX
  8
0
 10
1075.502761
 20
100.192354
 42
0.138351
  0
VERTEX
  8
0
 10
1076.163090
 20
99.325682
 42
0.162600
  0
VERTEX
  8
0
 10
1077.138095
 20
99.000000
 42
0.029056
  0
VERTEX
  8
0
 10
1077.851457
 20
99.041490
 42
0.045399
  0
VERTEX
  8
0
 10
1078.453065
 20
99.167786
 42
0.057061
  0
VERTEX
  8
0
 10
1078.873339
 20
99.351280
 42
0.267397
  0
VERTEX
  8
0
 10
1079.000000
 20
99.571187
 42
-0.040218
  0
VERTEX
  8
0
 10
1079.036108
 20
100.019360
 42
-0.000137
  0
VERTEX
  8
0
 10
1079.914147
 20
105.423821
 42
-0.000750
  0
VERTEX
  8
0
 10
1080.919024
 20
111.540487
 42
-0.000470
  0
VERTEX
  8
0
 10
1082.111990
 20
118.692956
 42
0.003378
  0
VERTEX
  8
0
 10
1083.547152
 20
127.617103
 42
0.012799
  0
VERTEX
  8
0
 10
1084.263634
 20
133.223877
 42
0.011939
  0
VERTEX
  8
0
 10
1084.559354
 20
137.025718
 42
0.274330
  0
VERTEX
  8
0
 10
1084.073839
 20
137.954365
 42
0.081239
  0
VERTEX
  8
0
 10
1083.228347
 20
138.303345
 42
0.003965
  0
VERTEX
  8
0
 10
1080.261821
 20
138.971085
 42
0.006352
  0
VERTEX
  8
0
 10
1076.707570
 20
139.694407
 42
0.004534
  0
VERTEX
  8
0
 10
1072.711849
 20
140.417358
 42
-0.000729
  0
VERTEX
  8
0
 10
1066.501977
 20
141.492178
 42
-0.000093
  0
VERTEX
  8
0
 10
1053.149023
 20
143.825952
 42
-0.000109
  0
VERTEX
  8
0
 10
1037.301702
 20
146.602271
 42
-0.000091
  0
VERTEX
  8
0
 10
1020.455037
 20
149.560593
 42
0.001438
  0
VERTEX
  8
0
 10
1004.128231
 20
152.382303
 42
0.002171
  0
VERTEX
  8
0
 10
989.892739
 20
154.736884
 42
0.000832
  0
VERTEX
  8
0
 10
977.647818
 20
156.686732
 42
0.051669
  0
VERTEX
  8
0
 10
975.455037
 20
156.803062
 42
-0.085160
  0
VERTEX
  8
0
 10
973.571002
 20
157.029597
 42
-0.006550
  0
VERTEX
  8
0
 10
968.684756
 20
158.555423
 42
-0.008828
  0
VERTEX
  8
0
 10
962.878833
 20
160.566379
 42
-0.006618
  0
VERTEX
  8
0
 10
956.556899
 20
162.977217
 42
0.000000
  0
VERTEX
  8
0
 10
940.613797
 20
169.299972
 42
0.000000
  0
VERTEX
  8
0
 10
938.056899
 20
166.290943
 42
-0.009995
  0
VERTEX
  8
0
 10
936.159879
 20
164.146850
 42
-0.000257
  0
VERTEX
  8
0
 10
927.438589
 20
154.687752
 42
-0.000546
  0
VERTEX
  8
0
 10
917.180609
 20
143.597744
 42
-0.000373
  0
VERTEX
  8
0
 10
905.500000
 20
131.016164
 42
0.000000
  0
VERTEX
  8
0
 10
875.500000
 20
98.750415
 42
0.000000
  0
VERTEX
  8
0
 10
874.286896
 20
132.625208
 42
0.000660
  0
VERTEX
  8
0
 10
873.764720
 20
146.687378
 42
0.000636
  0
VERTEX
  8
0
 10
873.198991
 20
160.927226
 42
0.000628
  0
VERTEX
  8
0
 10
872.668725
 20
173.474923
 42
0.002315
  0
VERTEX
  8
0
 10
872.286896
 20
181.403647
 42
0.000000
  0
VERTEX
  8
0
 10
871.500000
 20
196.307293
 42
0.000000
  0
VERTEX
  8
0
 10
868.000000
 20
197.548507
 42
-0.006403
  0
VERTEX
  8
0
 10
865.690319
 20
198.401045
 42
-0.000434
  0
VERTEX
  8
0
 10
859.151772
 20
200.916626
 42
-0.000623
  0
VERTEX
  8
0
 10
851.362571
 20
203.932288
 42
-0.000467
  0
VERTEX
  8
0
 10
842.793266
 20
207.271460
 42
0.002828
  0
VERTEX
  8
0
 10
834.431807
 20
210.484247
 42
0.004621
  0
VERTEX
  8
0
 10
827.303301
 20
213.102104
 42
0.000936
  0
VERTEX
  8
0
 10
821.041475
 20
215.323026
 42
0.288735
  0
SEQEND
  0
POLYLINE
  8
0
 66
1
 70
1
  0
VERTEX
  8
0
 10
1431.612482
 20
191.809914
 42
0.021882
  0
VERTEX
  8
0
 10
1431.368168
 20
188.690109
 42
0.000604
  0
VERTEX
  8
0
 10
1430.917220
 20
175.106662
 42
0.001243
  0
VERTEX
  8
0
 10
1430.445900
 20
159.129784
 42
0.000853
  0
VERTEX
  8
0
 10
1429.987126
 20
141.000000
 42
-0.001354
  0
VERTEX
  8
0
 10
1428.932385
 20
100.906972
 42
-0.005578
  0
VERTEX
  8
0
 10
1427.957574
 20
76.649499
 42
-0.006695
  0
VERTEX
  8
0
 10
1426.919775
 20
60.634222
 42
-0.065133
  0
VERTEX
  8
0
 10
1425.518344
 20
54.000000
 42
-0.038596
  0
VERTEX
  8
0
 10
1424.620595
 20
51.964692
 42
-0.019480
  0
VERTEX
  8
0
 10
1423.198226
 20
49.545573
 42
-0.019223
  0
VERTEX
  8
0
 10
1421.525914
 20
47.147368
 42
-0.027032
  0
VERTEX
  8
0
 10
1419.843053
 20
45.155142
 42
-0.013022
  0
VERTEX
  8
0
 10
1417.237784
 20
42.529541
 42
-0.087640
  0
VERTEX
  8
0
 10
1415.717458
 20
41.515097
 42
-0.113115
  0
VERTEX
  8
0
 10
1414.110601
 20
41.208891
 42
-0.027978
  0
VERTEX
  8
0
 10
1411.422336
 20
41.459376
 42
-0.075925
  0
VERTEX
  8
0
 10
1404.206235
 20
43.694818
 42
-0.040743
  0
VERTEX
  8
0
 10
1396.159915
 20
48.446237
 42
-0.017516
  0
VERTEX
  8
0
 10
1383.865464
 20
57.790219
 42
-0.002045
  0
VERTEX
  8
0
 10
1357.233998
 20
79.725375
 42
0.000000
  0
VERTEX
  8
0
 10
1327.967997
 20
104.032107
 42
0.000000
  0
VERTEX
  8
0
 10
1342.161638
 20
121.766053
 42
-0.001387
  0
VERTEX
  8
0
 10
1360.787799
 20
144.906292
 42
-0.012282
  0
VERTEX
  8
0
 10
1369.279481
 20
154.884791
 42
-0.028496
  0
VERTEX
  8
0
 10
1374.770396
 20
160.362371
 42
-0.068153
  0
VERTEX
  8
0
 10
1379.538985
 20
163.562875
 42
0.015299
  0
VERTEX
  8
0
 10
1383.013921
 20
165.396814
 42
0.090494
  0
VERTEX
  8
0
 10
1384.584806
 20
166.711121
 42
0.311987
  0
VERTEX
  8
0
 10
1384.674688
 20
167.721070
 42
0.173798
  0
VERTEX
  8
0
 10
1383.696174
 20
168.563095
 42
0.142475
  0
VERTEX
  8
0
 10
1382.154449
 20
168.691915
 42
0.000353
  0
VERTEX
  8
0
 10
1360.362635
 20
164.265659
 42
0.001411
  0
VERTEX
  8
0
 10
1340.258417
 20
160.108258
 42
0.028780
  0
VERTEX
  8
0
 10
1334.266859
 20
158.486860
 42
0.134048
  0
VERTEX
  8
0
 10
1333.844717
 20
158.205230
 42
0.105732
  0
VERTEX
  8
0
 10
1333.577775
 20
157.722662
 42
0.091592
  0
VERTEX
  8
0
 10
1333.508914
 20
157.109947
 42
0.074048
  0
VERTEX
  8
0
 10
1333.652688
 20
156.462698
 42
0.131474
  0
VERTEX
  8
0
 10
1334.210984
 20
155.693520
 42
0.127215
  0
VERTEX
  8
0
 10
1335.085624
 20
155.294061
 42
0.064745
  0
VERTEX
  8
0
 10
1336.523136
 20
155.227828
 42
0.013353
  0
VERTEX
  8
0
 10
1339.048639
 20
155.506690
 42
-0.083359
  0
VERTEX
  8
0
 10
1345.391012
 20
155.318553
 42
-0.212082
  0
VERTEX
  8
0
 10
1349.072703
 20
152.723597
 42
-0.196987
  0
VERTEX
  8
0
 10
1349.774555
 20
148.075732
 42
-0.072445
  0
VERTEX
  8
0
 10
1347.241839
 20
141.803176
 42
-0.033621
  0
VERTEX
  8
0
 10
1342.068826
 20
134.170164
 42
-0.001793
  0
VERTEX
  8
0
 10
1323.939144
 20
111.117262
 42
-0.000291
  0
VERTEX
  8
0
 10
1303.932759
 20
85.895116
 42
-0.462934
  0
VERTEX
  8
0
 10
1302.922107
 20
85.862244
 42
-0.135288
  0
VERTEX
  8
0
 10
1301.866328
 20
87.954917
 42
-0.000771
  0
VERTEX
  8
0
 10
1297.515066
 20
109.782642
 42
-0.001859
  0
VERTEX
  8
0
 10
1293.510087
 20
130.439255
 42
-0.047800
  0
VERTEX
  8
0
 10
1292.984927
 20
136.115141
 42
-0.063982
  0
VERTEX
  8
0
 10
1293.502893
 20
140.044763
 42
-0.093572
  0
VERTEX
  8
0
 10
1295.002456
 20
143.185550
 42
-0.094860
  0
VERTEX
  8
0
 10
1297.525610
 20
145.534215
 42
-0.067439
  0
VERTEX
  8
0
 10
1301.053648
 20
147.134219
 42
0.026215
  0
VERTEX
  8
0
 10
1302.846375
 20
147.775470
 42
0.064569
  0
VERTEX
  8
0
 10
1304.053813
 20
148.474664
 42
0.095259
  0
VERTEX
  8
0
 10
1304.753000
 20
149.260679
 42
0.135077
  0
VERTEX
  8
0
 10
1305.000000
 20
150.158288
 42
0.012748
  0
VERTEX
  8
0
 10
1304.981995
 20
150.864368
 42
0.020987
  0
VERTEX
  8
0
 10
1304.926563
 20
151.458978
 42
0.016327
  0
VERTEX
  8
0
 10
1304.848697
 20
151.919277
 42
0.356787
  0
VERTEX
  8
0
 10
1304.750000
 20
151.999934
 42
0.053522
  0
VERTEX
  8
0
 10
1304.548301
 20
151.978228
 42
0.000012
  0
VERTEX
  8
0
 10
1295.194202
 20
149.943657
 42
0.000253
  0
VERTEX
  8
0
 10
1284.831112
 20
147.683877
 42
0.000153
  0
VERTEX
  8
0
 10
1272.570686
 20
144.999934
 42
-0.000197
  0
VERTEX
  8
0
 10
1260.305414
 20
142.316050
 42
-0.000323
  0
VERTEX
  8
0
 10
1249.926406
 20
140.056231
 42
-0.000020
  0
VERTEX
  8
0
 10
1240.578629
 20
138.027661
 42
-0.053465
  0
VERTEX
  8
0
 10
1240.320686
 20
138.000000
 42
0.342671
  0
VERTEX
  8
0
 10
1240.194819
 20
137.902261
 42
0.022330
  0
VERTEX
  8
0
 10
1240.094202
 20
137.419844
 42
0.024985
  0
VERTEX
  8
0
 10
1240.023118
 20
136.782131
 42
0.015263
  0
VERTEX
  8
0
 10
1240.000000
 20
136.025000
 42
0.067029
  0
VERTEX
  8
0
 10
1240.138025
 20
135.000031
 42
0.238342
  0
VERTEX
  8
0
 10
1240.569620
 20
134.523223
 42
0.130655
  0
VERTEX
  8
0
 10
1241.423175
 20
134.431252
 42
0.016747
  0
VERTEX
  8
0
 10
1243.250000
 20
134.775000
 42
-0.055080
  0
VERTEX
  8
0
 10
1249.667917
 20
135.480154
 42
-0.104392
  0
VERTEX
  8
0
 10
1254.733753
 20
134.407572
 42
-0.123097
  0
VERTEX
  8
0
 10
1258.394403
 20
131.556894
 42
-0.095886
  0
VERTEX
  8
0
 10
1260.699938
 20
127.051750
 42
-0.017973
  0
VERTEX
  8
0
 10
1262.555865
 20
119.656335
 42
-0.000260
  0
VERTEX
  8
0
 10
1271.977852
 20
75.324335
 42
-0.000261
  0
VERTEX
  8
0
 10
1281.351820
 20
30.991315
 42
-0.017911
  0
VERTEX
  8
0
 10
1282.661026
 20
23.456429
 42
-0.097075
  0
VERTEX
  8
0
 10
1282.374200
 20
18.458556
 42
-0.120072
  0
VERTEX
  8
0
 10
1280.186459
 20
14.355686
 42
-0.103426
  0
VERTEX
  8
0
 10
1276.047364
 20
11.300853
 42
-0.058138
  0
VERTEX
  8
0
 10
1270.079835
 20
9.365967
 42
0.070543
  0
VERTEX
  8
0
 10
1268.291338
 20
8.736831
 42
0.134473
  0
VERTEX
  8
0
 10
1267.180702
 20
7.709519
 42
0.215971
  0
VERTEX
  8
0
 10
1267.033265
 20
6.595665
 42
0.182852
  0
VERTEX
  8
0
 10
1267.763262
 20
5.646312
 42
0.188093
  0
VERTEX
  8
0
 10
1268.410265
 20
5.527418
 42
0.000669
  0
VERTEX
  8
0
 10
1276.229671
 20
7.042963
 42
0.003402
  0
VERTEX
  8
0
 10
1285.112465
 20
8.839759
 42
0.002113
  0
VERTEX
  8
0
 10
1295.513262
 20
11.063287
 42
-0.000165
  0
VERTEX
  8
0
 10
1306.231714
 20
13.398426
 42
-0.000210
  0
VERTEX
  8
0
 10
1316.114833
 20
15.543808
 42
-0.000163
  0
VERTEX
  8
0
 10
1324.403768
 20
17.336652
 42
-0.001770
  0
VERTEX
  8
0
 10
1327.750000
 20
18.046890
 42
0.015070
  0
VERTEX
  8
0
 10
1330.393221
 20
18.681819
 42
0.062567
  0
VERTEX
  8
0
 10
1331.907154
 20
19.305636
 42
0.118156
  0
VERTEX
  8
0
 10
1332.707983
 20
20.053248
 42
0.147182
  0
VERTEX
  8
0
 10
1333.000000
 20
21.023783
 42
0.111586
  0
VERTEX
  8
0
 10
1332.780735
 20
21.994039
 42
0.218582
  0
VERTEX
  8
0
 10
1332.185406
 20
22.491314
 42
0.086083
  0
VERTEX
  8
0
 10
1330.952267
 20
22.607267
 42
0.009975
  0
VERTEX
  8
0
 10
1328.178758
 20
22.334765
 42
-0.058726
  0
VERTEX
  8
0
 10
1323.927603
 20
22.332350
 42
-0.081292
  0
VERTEX
  8
0
 10
1320.268646
 20
23.380449
 42
-0.090427
  0
VERTEX
  8
0
 10
1317.418276
 20
25.422108
 42
-0.093564
  0
VERTEX
  8
0
 10
1315.512563
 20
28.316418
 42
-0.037772
  0
VERTEX
  8
0
 10
1314.790787
 20
30.493070
 42
-0.002435
  0
VERTEX
  8
0
 10
1313.203250
 20
36.985635
 42
-0.003545
  0
VERTEX
  8
0
 10
1311.402009
 20
44.753713
 42
-0.002633
  0
VERTEX
  8
0
 10
1309.518566
 20
53.358084
 42
0.000000
  0
VERTEX
  8
0
 10
1304.854451
 20
75.216168
 42
0.000000
  0
VERTEX
  8
0
 10
1307.010826
 20
77.511524
 42
0.000000
  0
VERTEX
  8
0
 10
1309.167201
 20
79.806880
 42
0.000000
  0
VERTEX
  8
0
 10
1330.333601
 20
62.062211
 42
-0.003217
  0
VERTEX
  8
0
 10
1346.115874
 20
48.657420
 42
-0.019997
  0
VERTEX
  8
0
 10
1353.880478
 20
41.416043
 42
-0.038017
  0
VERTEX
  8
0
 10
1357.940867
 20
36.636894
 42
-0.189269
  0
VERTEX
  8
0
 10
1358.809761
 20
33.292068
 42
-0.137818
  0
VERTEX
  8
0
 10
1358.081626
 20
31.539989
 42
-0.056405
  0
VERTEX
  8
0
 10
1356.252493
 20
29.692735
 42
-0.048972
  0
VERTEX
  8
0
 10
1353.670412
 20
28.001886
 42
-0.040060
  0
VERTEX
  8
0
 10
1350.631434
 20
26.710478
 42
0.166683
  0
VERTEX
  8
0
 10
1350.311968
 20
26.466569
 42
0.142519
  0
VERTEX
  8
0
 10
1350.184125
 20
26.060855
 42
0.094523
  0
VERTEX
  8
0
 10
1350.277151
 20
25.506839
 42
0.044310
  0
VERTEX
  8
0
 10
1350.590210
 20
24.847697
 42
0.292952
  0
VERTEX
  8
0
 10
1351.990849
 20
24.138207
 42
0.016362
  0
VERTEX
  8
0
 10
1357.061617
 20
24.820788
 42
0.010973
  0
VERTEX
  8
0
 10
1365.753956
 20
26.478753
 42
0.001331
  0
VERTEX
  8
0
 10
1384.761930
 20
30.591461
 42
0.002783
  0
VERTEX
  8
0
 10
1397.606944
 20
33.481537
 42
0.004330
  0
VERTEX
  8
0
 10
1408.643732
 20
36.130264
 42
0.001379
  0
VERTEX
  8
0
 10
1418.154259
 20
38.527866
 42
0.134728
  0
VERTEX
  8
0
 10
1419.353441
 20
39.210583
 42
-0.087574
  0
VERTEX
  8
0
 10
1420.450789
 20
39.978678
 42
-0.002273
  0
VERTEX
  8
0
 10
1425.913776
 20
42.493701
 42
-0.004742
  0
VERTEX
  8
0
 10
1432.390282
 20
45.365898
 42
-0.003214
  0
VERTEX
  8
0
 10
1439.819425
 20
48.520082
 42
0.002073
  0
VERTEX
  8
0
 10
1447.157077
 20
51.615669
 42
0.003407
  0
VERTEX
  8
0
 10
1453.336499
 20
54.302774
 42
0.000509
  0
VERTEX
  8
0
 10
1458.777984
 20
56.719839
 42
0.292492
  0
VERTEX
  8
0
 10
1458.962601
 20
57.000000
 42
0.088877
  0
VERTEX
  8
0
 10
1458.918417
 20
57.267426
 42
0.019253
  0
VERTEX
  8
0
 10
1458.744218
 20
57.704158
 42
0.019503
  0
VERTEX
  8
0
 10
1458.499979
 20
58.200824
 42
0.017565
  0
VERTEX
  8
0
 10
1458.209658
 20
58.695006
 42
0.190610
  0
VERTEX
  8
0
 10
1457.523139
 20
59.193256
 42
0.074540
  0
VERTEX
  8
0
 10
1456.337493
 20
59.314975
 42
0.040213
  0
VERTEX
  8
0
 10
1454.472959
 20
59.077113
 42
0.009874
  0
VERTEX
  8
0
 10
1451.458824
 20
58.380847
 42
-0.034862
  0
VERTEX
  8
0
 10
1446.741998
 20
57.536798
 42
-0.088138
  0
VERTEX
  8
0
 10
1443.277448
 20
57.774311
 42
-0.110591
  0
VERTEX
  8
0
 10
1440.587677
 20
59.122252
 42
-0.076573
  0
VERTEX
  8
0
 10
1438.302299
 20
61.660072
 42
-0.120952
  0
VERTEX
  8
0
 10
1436.748659
 20
66.058807
 42
-0.014280
  0
VERTEX
  8
0
 10
1436.015267
 20
76.484224
 42
-0.009483
  0
VERTEX
  8
0
 10
1435.771976
 20
87.196923
 42
-0.304585
  0
VERTEX
  8
0
 10
1437.151162
 20
89.267622
 42
0.001789
  0
VERTEX
  8
0
 10
1438.161402
 20
89.689376
 42
0.000026
  0
VERTEX
  8
0
 10
1444.109753
 20
92.198084
 42
0.000072
  0
VERTEX
  8
0
 10
1451.012658
 20
95.110969
 42
0.000047
  0
VERTEX
  8
0
 10
1458.945870
 20
98.460854
 42
0.000000
  0
VERTEX
  8
0
 10
1479.391740
 20
107.096632
 42
0.000000
  0
VERTEX
  8
0
 10
1489.599161
 20
96.798316
 42
-0.006762
  0
VERTEX
  8
0
 10
1493.554875
 20
92.697920
 42
-0.009282
  0
VERTEX
  8
0
 10
1496.992615
 20
88.897640
 42
-0.006478
  0
VERTEX
  8
0
 10
1499.754141
 20
85.644424
 42
-0.101588
  0
VERTEX
  8
0
 10
1500.434540
 20
84.363863
 42
-0.179962
  0
VERTEX
  8
0
 10
1500.267013
 20
81.981255
 42
-0.071605
  0
VERTEX
  8
0
 10
1498.473090
 20
79.178017
 42
-0.061628
  0
VERTEX
  8
0
 10
1495.557222
 20
76.539777
 42
-0.058001
  0
VERTEX
  8
0
 10
1492.028238
 20
74.627975
 42
0.020459
  0
VERTEX
  8
0
 10
1490.146558
 20
73.784232
 42
0.074199
  0
VERTEX
  8
0
 10
1489.074993
 20
73.034401
 42
0.137286
  0
VERTEX
  8
0
 10
1488.620495
 20
72.274882
 42
0.159529
  0
VERTEX
  8
0
 10
1488.662420
 20
71.437337
 42
0.094154
  0
VERTEX
  8
0
 10
1489.018980
 20
70.861168
 42
0.088347
  0
VERTEX
  8
0
 10
1489.569180
 20
70.440606
 42
0.089197
  0
VERTEX
  8
0
 10
1490.225828
 20
70.238572
 42
0.098511
  0
VERTEX
  8
0
 10
1490.887906
 20
70.288873
 42
0.030857
  0
VERTEX
  8
0
 10
1493.098069
 20
71.055578
 42
0.000098
  0
VERTEX
  8
0
 10
1520.215198
 20
82.386508
 42
0.000043
  0
VERTEX
  8
0
 10
1547.893790
 20
93.961219
 42
0.072574
  0
VERTEX
  8
0
 10
1548.773539
 20
94.489836
 42
0.248359
  0
VERTEX
  8
0
 10
1548.847008
 20
94.664594
 42
0.024835
  0
VERTEX
  8
0
 10
1548.782310
 20
95.128550
 42
0.026624
  0
VERTEX
  8
0
 10
1548.639944
 20
95.706676
 42
0.017933
  0
VERTEX
  8
0
 10
1548.419280
 20
96.349757
 42
0.092193
  0
VERTEX
  8
0
 10
1547.987968
 20
97.052811
 42
0.127707
  0
VERTEX
  8
0
 10
1547.373137
 20
97.457931
 42
0.101066
  0
VERTEX
  8
0
 10
1546.525274
 20
97.566302
 42
0.042922
  0
VERTEX
  8
0
 10
1545.389168
 20
97.382827
 42
-0.080784
  0
VERTEX
  8
0
 10
1542.074666
 20
97.101458
 42
-0.062843
  0
VERTEX
  8
0
 10
1538.525548
 20
97.828483
 42
-0.052261
  0
VERTEX
  8
0
 10
1534.695387
 20
99.594358
 42
-0.030967
  0
VERTEX
  8
0
 10
1530.535044
 20
102.430489
 42
-0.024172
  0
VERTEX
  8
0
 10
1526.734132
 20
105.688180
 42
-0.000916
  0
VERTEX
  8
0
 10
1513.173528
 20
118.544833
 42
-0.001647
  0
VERTEX
  8
0
 10
1497.203760
 20
133.841825
 42
-0.001159
  0
VERTEX
  8
0
 10
1479.335671
 20
151.150504
 42
0.000507
  0
VERTEX
  8
0
 10
1461.805073
 20
168.176627
 42
0.000830
  0
VERTEX
  8
0
 10
1446.912600
 20
182.563373
 42
0.000070
  0
VERTEX
  8
0
 10
1433.534482
 20
195.440721
 42
0.100742
  0
VERTEX
  8
0
 10
1432.952589
 20
195.809914
 42
0.383987
  0
VERTEX
  8
0
 10
1432.605817
 20
195.675941
 42
0.036414
  0
VERTEX
  8
0
 10
1432.223952
 20
194.762754
 42
0.032017
  0
VERTEX
  8
0
 10
1431.873249
 20
193.440499
 42
0.018337
  0
SEQEND
  0
POLYLINE
  8
0
 66
1
 70
1
  0
VERTEX
  8
0
 10
1473.000000
 20
112.974349
 42
-0.293809
  0
VERTEX
  8
0
 10
1472.802906
 20
112.667892
 42
-0.000685
  0
VERTEX
  8
0
 10
1467.712500
 20
110.355744
 42
-0.003962
  0
VERTEX
  8
0
 10
1461.901357
 20
107.781113
 42
-0.002416
  0
VERTEX
  8
0
 10
1455.000000
 20
104.828193
 42
0.000000
  0
VERTEX
  8
0
 10
1437.000000
 20
97.229121
 42
0.000000
  0
VERTEX
  8
0
 10
1437.005994
 20
114.364560
 42
-0.003305
  0
VERTEX
  8
0
 10
1437.055904
 20
121.536243
 42
-0.003033
  0
VERTEX
  8
0
 10
1437.200799
 20
128.914789
 42
-0.003030
  0
VERTEX
  8
0
 10
1437.409898
 20
135.496015
 42
-0.009965
  0
VERTEX
  8
0
 10
1437.660744
 20
139.834722
 42
0.000000
  0
VERTEX
  8
0
 10
1438.309501
 20
148.169445
 42
0.000000
  0
VERTEX
  8
0
 10
1455.654751
 20
130.845439
 42
-0.001478
  0
VERTEX
  8
0
 10
1462.304795
 20
124.164148
 42
-0.002408
  0
VERTEX
  8
0
 10
1467.904833
 20
118.449654
 42
-0.000330
  0
VERTEX
  8
0
 10
1472.848010
 20
113.349887
 42
-0.194692
  0
SEQEND
  0
POLYLINE
  8
0
 66
1
 70
1
  0
VERTEX
  8
0
 10
1090.602148
 20
119.593861
 42
0.003443
  0
VERTEX
  8
0
 10
1090.375724
 20
112.770537
 42
0.005294
  0
VERTEX
  8
0
 10
1090.282959
 20
106.861678
 42
0.001971
  0
VERTEX
  8
0
 10
1090.277037
 20
101.794028
 42
0.138577
  0
VERTEX
  8
0
 10
1090.507054
 20
100.988586
 42
0.222379
  0
VERTEX
  8
0
 10
1091.692030
 20
100.212931
 42
0.258047
  0
VERTEX
  8
0
 10
1092.937660
 20
100.686244
 42
0.082051
  0
VERTEX
  8
0
 10
1094.292865
 20
102.952932
 42
0.017989
  0
VERTEX
  8
0
 10
1095.808786
 20
107.250000
 42
-0.034312
  0
VERTEX
  8
0
 10
1098.338909
 20
113.739078
 42
-0.048364
  0
VERTEX
  8
0
 10
1101.513152
 20
119.070433
 42
-0.054344
  0
VERTEX
  8
0
 10
1105.301684
 20
123.200802
 42
-0.066190
  0
VERTEX
  8
0
 10
1109.665182
 20
126.108346
 42
-0.030703
  0
VERTEX
  8
0
 10
1112.635970
 20
127.344109
 42
-0.043078
  0
VERTEX
  8
0
 10
1115.420299
 20
128.045313
 42
-0.031194
  0
VERTEX
  8
0
 10
1118.891192
 20
128.387390
 42
-0.008679
  0
VERTEX
  8
0
 10
1124.358067
 20
128.488612
 42
0.000000
  0
VERTEX
  8
0
 10
1134.216135
 20
128.500000
 42
0.000000
  0
VERTEX
  8
0
 10
1134.111511
 20
107.500000
 42
-0.002151
  0
VERTEX
  8
0
 10
1133.812664
 20
75.313889
 42
-0.002555
  0
VERTEX
  8
0
 10
1133.244442
 20
44.927409
 42
-0.000966
  0
VERTEX
  8
0
 10
1132.543394
 20
17.696676
 42
-0.054812
  0
VERTEX
  8
0
 10
1131.854198
 20
12.704393
 42
-0.093504
  0
VERTEX
  8
0
 10
1130.318045
 20
9.382689
 42
-0.101023
  0
VERTEX
  8
0
 10
1127.710131
 20
6.954134
 42
-0.086427
  0
VERTEX
  8
0
 10
1124.004290
 20
5.491081
 42
-0.050762
  0
VERTEX
  8
0
 10
1119.250000
 20
5.003738
 42
0.010624
  0
VERTEX
  8
0
 10
1116.276282
 20
4.938425
 42
0.080522
  0
VERTEX
  8
0
 10
1114.906717
 20
4.655229
 42
0.189763
  0
VERTEX
  8
0
 10
1114.243736
 20
4.050274
 42
0.114513
  0
VERTEX
  8
0
 10
1114.000000
 20
3.000000
 42
0.190235
  0
VERTEX
  8
0
 10
1114.431019
 20
1.908136
 42
0.157774
  0
VERTEX
  8
0
 10
1115.531521
 20
1.298510
 42
0.044482
  0
VERTEX
  8
0
 10
1117.950292
 20
1.046047
 42
0.003721
  0
VERTEX
  8
0
 10
1124.250000
 20
0.997833
 42
-0.003721
  0
VERTEX
  8
0
 10
1129.776438
 20
0.955540
 42
-0.000941
  0
VERTEX
  8
0
 10
1138.759375
 20
0.803028
 42
-0.000960
  0
VERTEX
  8
0
 10
1149.022656
 20
0.589743
 42
-0.000970
  0
VERTEX
  8
0
 10
1159.250000
 20
0.337709
 42
0.000000
  0
VERTEX
  8
0
 10
1184.000000
 20
-0.320248
 42
0.000000
  0
VERTEX
  8
0
 10
1184.000000
 20
1.839876
 42
0.088421
  0
VERTEX
  8
0
 10
1183.793766
 20
2.996964
 42
0.200356
  0
VERTEX
  8
0
 10
1183.200083
 20
3.636489
 42
0.094805
  0
VERTEX
  8
0
 10
1181.972178
 20
3.934419
 42
0.012166
  0
VERTEX
  8
0
 10
1179.250000
 20
4.001554
 42
-0.052242
  0
VERTEX
  8
0
 10
1175.125148
 20
4.435082
 42
-0.055814
  0
VERTEX
  8
0
 10
1171.275610
 20
5.713429
 42
-0.061490
  0
VERTEX
  8
0
 10
1168.165952
 20
7.641255
 42
-0.105033
  0
VERTEX
  8
0
 10
1166.243992
 20
10.000000
 42
-0.111416
  0
VERTEX
  8
0
 10
1165.554124
 20
12.673861
 42
-0.004423
  0
VERTEX
  8
0
 10
1165.333593
 20
22.818262
 42
-0.004878
  0
VERTEX
  8
0
 10
1165.285020
 20
38.310675
 42
-0.000971
  0
VERTEX
  8
0
 10
1165.522085
 20
66.000000
 42
-0.000827
  0
VERTEX
  8
0
 10
1165.775053
 20
86.809068
 42
-0.001228
  0
VERTEX
  8
0
 10
1166.071478
 20
105.032812
 42
-0.000528
  0
VERTEX
  8
0
 10
1166.379686
 20
120.615253
 42
-0.025192
  0
VERTEX
  8
0
 10
1166.603277
 20
123.750000
 42
0.000000
  0
VERTEX
  8
0
 10
1167.122546
 20
128.000000
 42
0.000000
  0
VERTEX
  8
0
 10
1175.311273
 20
127.994423
 42
-0.018587
  0
VERTEX
  8
0
 10
1182.226983
 20
127.732536
 42
-0.051047
  0
VERTEX
  8
0
 10
1187.028989
 20
126.873469
 42
-0.063531
  0
VERTEX
  8
0
 10
1190.931164
 20
125.196353
 42
-0.043812
  0
VERTEX
  8
0
 10
1194.849843
 20
122.396533
 42
-0.042807
  0
VERTEX
  8
0
 10
1198.069864
 20
119.123858
 42
-0.041196
  0
VERTEX
  8
0
 10
1200.731689
 20
115.310341
 42
-0.036483
  0
VERTEX
  8
0
 10
1202.983222
 20
110.697706
 42
-0.022592
  0
VERTEX
  8
0
 10
1204.972215
 20
105.002367
 42
0.020648
  0
VERTEX
  8
0
 10
1205.733766
 20
102.794187
 42
0.032184
  0
VERTEX
  8
0
 10
1206.586546
 20
100.972104
 42
0.035589
  0
VERTEX
  8
0
 10
1207.435346
 20
99.657241
 42
0.186146
  0
VERTEX
  8
0
 10
1208.152820
 20
99.209086
 42
0.335736
  0
VERTEX
  8
0
 10
1208.979263
 20
99.616048
 42
0.070964
  0
VERTEX
  8
0
 10
1209.524273
 20
101.240445
 42
0.028055
  0
VERTEX
  8
0
 10
1209.932993
 20
104.468940
 42
0.004029
  0
VERTEX
  8
0
 10
1210.343996
 20
111.113721
 42
0.002224
  0
VERTEX
  8
0
 10
1210.595130
 20
116.206759
 42
0.002075
  0
VERTEX
  8
0
 10
1210.807299
 20
121.420731
 42
0.002067
  0
VERTEX
  8
0
 10
1210.957404
 20
126.054003
 42
0.007063
  0
VERTEX
  8
0
 10
1211.000000
 20
129.069104
 42
0.000000
  0
VERTEX
  8
0
 10
1211.000000
 20
134.824204
 42
0.000000
  0
VERTEX
  8
0
 10
1207.250000
 20
135.365009
 42
0.030365
  0
VERTEX
  8
0
 10
1204.430354
 20
135.598206
 42
0.000468
  0
VERTEX
  8
0
 10
1188.123395
 20
135.938586
 42
0.001250
  0
VERTEX
  8
0
 10
1169.173301
 20
136.269019
 42
0.000827
  0
VERTEX
  8
0
 10
1147.404111
 20
136.558182
 42
0.000000
  0
VERTEX
  8
0
 10
1091.308222
 20
137.210550
 42
0.000000
  0
SEQEND
  0
POLYLINE
  8
0
 66
1
 70
1
  0
VERTEX
  8
0
 10
1499.000000
 20
872.485011
 42
0.005167
  0
VERTEX
  8
0
 10
1473.732165
 20
867.792651
 42
0.013808
  0
VERTEX
  8
0
 10
1455.861553
 20
863.767120
 42
0.013980
  0
VERTEX
  8
0
 10
1443.254290
 20
860.180942
 42
0.150928
  0
VERTEX
  8
0
 10
1438.945196
 20
857.203198
 42
0.026003
  0
VERTEX
  8
0
 10
1437.482568
 20
855.130523
 42
0.155008
  0
VERTEX
  8
0
 10
1437.152892
 20
853.865613
 42
0.143997
  0
VERTEX
  8
0
 10
1437.601017
 20
852.593260
 42
0.021429
  0
VERTEX
  8
0
 10
1439.301537
 20
850.435831
 42
0.115276
  0
VERTEX
  8
0
 10
1441.587062
 20
848.766295
 42
0.056424
  0
VERTEX
  8
0
 10
1445.064491
 20
847.733787
 42
0.017997
  0
VERTEX
  8
0
 10
1451.633717
 20
846.808654
 42
0.001202
  0
VERTEX
  8
0
 10
1470.551537
 20
844.881600
 42
-0.002568
  0
VERTEX
  8
0
 10
1482.148361
 20
843.668270
 42
-0.003077
  0
VERTEX
  8
0
 10
1493.052639
 20
842.402792
 42
-0.002645
  0
VERTEX
  8
0
 10
1502.227016
 20
841.231527
 42
-0.020315
  0
VERTEX
  8
0
 10
1506.500000
 20
840.485303
 42
-0.055575
  0
VERTEX
  8
0
 10
1519.096807
 20
836.247099
 42
-0.022044
  0
VERTEX
  8
0
 10
1535.314064
 20
827.811001
 42
-0.022215
  0
VERTEX
  8
0
 10
1551.194850
 20
817.672767
 42
-0.040636
  0
VERTEX
  8
0
 10
1563.000000
 20
807.853411
 42
-0.014494
  0
VERTEX
  8
0
 10
1566.088270
 20
804.647816
 42
-0.005936
  0
VERTEX
  8
0
 10
1570.100308
 20
800.127534
 42
-0.005867
  0
VERTEX
  8
0
 10
1574.296710
 20
795.168535
 42
-0.007475
  0
VERTEX
  8
0
 10
1578.043602
 20
790.493269
 42
0.011814
  0
VERTEX
  8
0
 10
1584.086260
 20
783.086050
 42
0.072592
  0
VERTEX
  8
0
 10
1587.786207
 20
779.854333
 42
0.186456
  0
VERTEX
  8
0
 10
1590.606300
 20
779.269911
 42
0.170399
  0
VERTEX
  8
0
 10
1593.217190
 20
780.702667
 42
0.153640
  0
VERTEX
  8
0
 10
1595.019345
 20
784.669235
 42
0.005158
  0
VERTEX
  8
0
 10
1596.954971
 20
801.997269
 42
0.008620
  0
VERTEX
  8
0
 10
1598.360899
 20
818.757603
 42
0.062927
  0
VERTEX
  8
0
 10
1597.884532
 20
826.789516
 42
0.050894
  0
VERTEX
  8
0
 10
1595.435291
 20
835.099203
 42
0.039319
  0
VERTEX
  8
0
 10
1591.181983
 20
843.536504
 42
0.037624
  0
VERTEX
  8
0
 10
1585.422922
 20
851.590854
 42
0.036733
  0
VERTEX
  8
0
 10
1578.479026
 20
858.760792
 42
0.047345
  0
VERTEX
  8
0
 10
1570.814574
 20
864.388590
 42
0.044262
  0
VERTEX
  8
0
 10
1562.057862
 20
868.621505
 42
0.038096
  0
VERTEX
  8
0
 10
1551.539150
 20
871.710660
 42
0.021893
  0
VERTEX
  8
0
 10
1538.500000
 20
873.891459
 42
0.018205
  0
VERTEX
  8
0
 10
1528.736367
 20
874.728596
 42
0.021182
  0
VERTEX
  8
0
 10
1519.420592
 20
874.791635
 42
0.020219
  0
VERTEX
  8
0
 10
1509.774542
 20
874.056897
 42
0.014207
  0
SEQEND
  0
POLYLINE
  8
0
 66
1
 70
1
  0
VERTEX
  8
0
 10
1537.026234
 20
862.949728
 42
-0.022474
  0
VERTEX
  8
0
 10
1549.869138
 20
860.768202
 42
-0.047981
  0
VERTEX
  8
0
 10
1559.447737
 20
857.709571
 42
-0.056602
  0
VERTEX
  8
0
 10
1567.234046
 20
853.271507
 42
-0.045883
  0
VERTEX
  8
0
 10
1574.447609
 20
846.908391
 42
-0.031734
  0
VERTEX
  8
0
 10
1579.272693
 20
841.095530
 42
-0.032660
  0
VERTEX
  8
0
 10
1583.272884
 20
834.772426
 42
-0.035075
  0
VERTEX
  8
0
 10
1586.070764
 20
828.649996
 42
-0.071610
  0
VERTEX
  8
0
 10
1587.198373
 20
823.500000
 42
-0.032050
  0
VERTEX
  8
0
 10
1587.244396
 20
818.083685
 42
-0.008974
  0
VERTEX
  8
0
 10
1586.622058
 20
809.635054
 42
-0.002543
  0
VERTEX
  8
0
 10
1585.750715
 20
800.639492
 42
-0.384745
  0
VERTEX
  8
0
 10
1585.042676
 20
800.000000
 42
-0.200546
  0
VERTEX
  8
0
 10
1584.614882
 20
800.178775
 42
-0.013422
  0
VERTEX
  8
0
 10
1583.688523
 20
801.168635
 42
-0.017656
  0
VERTEX
  8
0
 10
1582.627284
 20
802.454148
 42
-0.012200
  0
VERTEX
  8
0
 10
1581.515015
 20
803.978333
 42
0.053995
  0
VERTEX
  8
0
 10
1573.153764
 20
813.629670
 42
0.024635
  0
VERTEX
  8
0
 10
1560.376122
 20
824.386683
 42
0.023472
  0
VERTEX
  8
0
 10
1545.255593
 20
834.810297
 42
0.024834
  0
VERTEX
  8
0
 10
1529.500000
 20
843.560594
 42
0.019694
  0
VERTEX
  8
0
 10
1519.936180
 20
847.807719
 42
0.030365
  0
VERTEX
  8
0
 10
1511.342861
 20
850.634755
 42
0.028077
  0
VERTEX
  8
0
 10
1501.994572
 20
852.539249
 42
0.014021
  0
VERTEX
  8
0
 10
1490.000000
 20
853.946567
 42
-0.002822
  0
VERTEX
  8
0
 10
1484.718978
 20
854.446573
 42
-0.003995
  0
VERTEX
  8
0
 10
1480.025000
 20
854.955658
 42
-0.002312
  0
VERTEX
  8
0
 10
1476.075716
 20
855.434452
 42
-0.056141
  0
VERTEX
  8
0
 10
1475.000000
 20
855.694774
 42
-0.686218
  0
VERTEX
  8
0
 10
1474.993981
 20
856.022465
 42
-0.022229
  0
VERTEX
  8
0
 10
1476.731250
 20
856.640675
 42
-0.016824
  0
VERTEX
  8
0
 10
1479.456456
 20
857.376691
 42
-0.008052
  0
VERTEX
  8
0
 10
1483.000000
 20
858.146934
 42
-0.005752
  0
VERTEX
  8
0
 10
1502.831380
 20
861.887483
 42
-0.021568
  0
VERTEX
  8
0
 10
1515.390108
 20
863.552294
 42
-0.030437
  0
VERTEX
  8
0
 10
1525.680876
 20
863.838536
 42
-0.022571
  0
SEQEND
  0
POLYLINE
  8
0
 66
1
 70
1
  0
VERTEX
  8
0
 10
1221.755167
 20
902.250000
 42
0.015495
  0
VERTEX
  8
0
 10
1211.399452
 20
887.240111
 42
0.049861
  0
VERTEX
  8
0
 10
1205.874515
 20
876.452018
 42
0.047382
  0
VERTEX
  8
0
 10
1202.449810
 20
864.496075
 42
0.013005
  0
VERTEX
  8
0
 10
1199.358762
 20
845.129278
 42
0.000000
  0
VERTEX
  8
0
 10
1197.579948
 20
831.758556
 42
0.000000
  0
VERTEX
  8
0
 10
1199.929349
 20
829.856126
 42
0.089121
  0
VERTEX
  8
0
 10
1201.885198
 20
828.780299
 42
0.105695
  0
VERTEX
  8
0
 10
1203.976243
 20
828.539810
 42
0.107305
  0
VERTEX
  8
0
 10
1205.958753
 20
829.174633
 42
0.094319
  0
VERTEX
  8
0
 10
1207.606770
 20
830.596226
 42
0.113786
  0
VERTEX
  8
0
 10
1208.115256
 20
831.664242
 42
0.005715
  0
VERTEX
  8
0
 10
1208.912745
 20
835.474516
 42
0.008932
  0
VERTEX
  8
0
 10
1209.734160
 20
840.065976
 42
0.006327
  0
VERTEX
  8
0
 10
1210.498454
 20
845.245251
 42
-0.013637
  0
VERTEX
  8
0
 10
1213.163095
 20
861.639131
 42
-0.044644
  0
VERTEX
  8
0
 10
1216.169966
 20
872.189847
 42
-0.048950
  0
VERTEX
  8
0
 10
1220.847404
 20
881.520540
 42
-0.018935
  0
VERTEX
  8
0
 10
1229.029308
 20
893.470448
 42
0.017071
  0
VERTEX
  8
0
 10
1233.680500
 20
900.209635
 42
0.068509
  0
VERTEX
  8
0
 10
1235.777548
 20
904.744326
 42
0.146264
  0
VERTEX
  8
0
 10
1235.795728
 20
907.834189
 42
0.201361
  0
VERTEX
  8
0
 10
1234.065741
 20
909.964816
 42
0.097706
  0
VERTEX
  8
0
 10
1231.218774
 20
910.834900
 42
0.166929
  0
VERTEX
  8
0
 10
1228.823625
 20
910.276619
 42
0.081851
  0
VERTEX
  8
0
 10
1226.149002
 20
907.915869
 42
0.012349
  0
SEQEND
  0
POLYLINE
  8
0
 66
1
 70
1
  0
VERTEX
  8
0
 10
1176.055624
 20
907.199863
 42
0.115050
  0
VERTEX
  8
0
 10
1174.152652
 20
904.683668
 42
0.005826
  0
VERTEX
  8
0
 10
1170.060166
 20
895.183859
 42
0.009421
  0
VERTEX
  8
0
 10
1165.641753
 20
884.000884
 42
0.007869
  0
VERTEX
  8
0
 10
1161.363063
 20
871.970185
 42
0.017845
  0
VERTEX
  8
0
 10
1159.680393
 20
866.337090
 42
0.039291
  0
VERTEX
  8
0
 10
1158.894013
 20
861.916480
 42
0.022434
  0
VERTEX
  8
0
 10
1158.589422
 20
856.136346
 42
0.002662
  0
VERTEX
  8
0
 10
1158.557759
 20
843.291164
 42
0.002217
  0
VERTEX
  8
0
 10
1158.644390
 20
831.410957
 42
0.018423
  0
VERTEX
  8
0
 10
1158.905909
 20
826.030536
 42
0.042284
  0
VERTEX
  8
0
 10
1159.435487
 20
822.944085
 42
0.120863
  0
VERTEX
  8
0
 10
1160.462747
 20
821.041164
 42
0.091597
  0
VERTEX
  8
0
 10
1162.326851
 20
819.616553
 42
0.111835
  0
VERTEX
  8
0
 10
1164.450066
 20
819.080917
 42
0.114917
  0
VERTEX
  8
0
 10
1166.552827
 20
819.516931
 42
0.100826
  0
VERTEX
  8
0
 10
1168.362951
 20
820.848563
 42
0.125367
  0
VERTEX
  8
0
 10
1169.252262
 20
822.531494
 42
0.044976
  0
VERTEX
  8
0
 10
1169.651962
 20
825.234527
 42
0.020432
  0
VERTEX
  8
0
 10
1169.726238
 20
829.860165
 42
0.002739
  0
VERTEX
  8
0
 10
1169.431264
 20
839.598563
 42
-0.013946
  0
VERTEX
  8
0
 10
1169.328154
 20
852.702932
 42
-0.042797
  0
VERTEX
  8
0
 10
1170.262662
 20
861.522706
 42
-0.036653
  0
VERTEX
  8
0
 10
1172.762016
 20
870.755222
 42
-0.008207
  0
VERTEX
  8
0
 10
1178.420563
 20
886.063577
 42
0.005782
  0
VERTEX
  8
0
 10
1180.557516
 20
891.759705
 42
0.007678
  0
VERTEX
  8
0
 10
1182.361040
 20
896.991104
 42
0.005677
  0
VERTEX
  8
0
 10
1183.748813
 20
901.394900
 42
0.073614
  0
VERTEX
  8
0
 10
1184.000000
 20
903.091765
 42
0.130616
  0
VERTEX
  8
0
 10
1183.258560
 20
905.881578
 42
0.144501
  0
VERTEX
  8
0
 10
1181.248225
 20
907.808655
 42
0.150545
  0
VERTEX
  8
0
 10
1178.581244
 20
908.289541
 42
0.144426
  0
SEQEND
  0
POLYLINE
  8
0
 66
1
 70
1
  0
VERTEX
  8
0
 10
1308.293981
 20
724.717975
 42
0.042906
  0
VERTEX
  8
0
 10
1307.417222
 20
724.232765
 42
0.036353
  0
VERTEX
  8
0
 10
1306.582881
 20
723.580009
 42
0.037906
  0
VERTEX
  8
0
 10
1305.907970
 20
722.867710
 42
0.079232
  0
VERTEX
  8
0
 10
1305.526454
 20
722.208342
 42
0.144767
  0
VERTEX
  8
0
 10
1305.296217
 20
719.295203
 42
0.002712
  0
VERTEX
  8
0
 10
1308.583031
 20
704.178066
 42
0.006612
  0
VERTEX
  8
0
 10
1311.958280
 20
689.938545
 42
0.031896
  0
VERTEX
  8
0
 10
1314.493827
 20
682.015752
 42
0.021123
  0
VERTEX
  8
0
 10
1317.311426
 20
675.633510
 42
0.027463
  0
VERTEX
  8
0
 10
1320.446815
 20
670.066055
 42
0.020280
  0
VERTEX
  8
0
 10
1324.860744
 20
663.728558
 42
0.006112
  0
VERTEX
  8
0
 10
1332.070943
 20
654.460059
 42
0.004315
  0
VERTEX
  8
0
 10
1337.635789
 20
647.606429
 42
0.026423
  0
VERTEX
  8
0
 10
1340.718303
 20
644.253842
 42
0.054649
  0
VERTEX
  8
0
 10
1342.896059
 20
642.545036
 42
0.139935
  0
VERTEX
  8
0
 10
1344.805383
 20
642.000000
 42
0.068432
  0
VERTEX
  8
0
 10
1347.101389
 20
642.315718
 42
0.126268
  0
VERTEX
  8
0
 10
1348.722092
 20
643.253399
 42
0.128088
  0
VERTEX
  8
0
 10
1349.676559
 20
644.844638
 42
0.071497
  0
VERTEX
  8
0
 10
1350.000000
 20
647.094992
 42
0.118863
  0
VERTEX
  8
0
 10
1349.567898
 20
648.886955
 42
0.024722
  0
VERTEX
  8
0
 10
1347.940280
 20
651.712153
 42
0.019235
  0
VERTEX
  8
0
 10
1345.299877
 20
655.485460
 42
0.007105
  0
VERTEX
  8
0
 10
1341.302732
 20
660.601433
 42
-0.014861
  0
VERTEX
  8
0
 10
1331.943487
 20
672.971119
 42
-0.045351
  0
VERTEX
  8
0
 10
1326.649855
 20
682.060615
 42
-0.043079
  0
VERTEX
  8
0
 10
1322.939746
 20
692.204770
 42
-0.012421
  0
VERTEX
  8
0
 10
1318.972390
 20
708.439256
 42
0.004688
  0
VERTEX
  8
0
 10
1317.734523
 20
713.867330
 42
0.006783
  0
VERTEX
  8
0
 10
1316.531031
 20
718.637143
 42
0.003770
  0
VERTEX
  8
0
 10
1315.433951
 20
722.628161
 42
0.104610
  0
VERTEX
  8
0
 10
1314.932617
 20
723.581191
 42
0.094084
  0
VERTEX
  8
0
 10
1313.637624
 20
724.650988
 42
0.083505
  0
VERTEX
  8
0
 10
1311.985834
 20
725.228264
 42
0.078397
  0
VERTEX
  8
0
 10
1310.142054
 20
725.252454
 42
0.069196
  0
SEQEND
  0
POLYLINE
  8
0
 66
1
 70
1
  0
VERTEX
  8
0
 10
1284.571429
 20
709.428571
 42
0.133092
  0
VERTEX
  8
0
 10
1283.425288
 20
707.430358
 42
0.095763
  0
VERTEX
  8
0
 10
1283.256909
 20
704.851341
 42
0.037805
  0
VERTEX
  8
0
 10
1284.126467
 20
700.590616
 42
0.004405
  0
VERTEX
  8
0
 10
1286.868908
 20
691.254428
 42
0.007399
  0
VERTEX
  8
0
 10
1290.449369
 20
680.050466
 42
0.018335
  0
VERTEX
  8
0
 10
1293.490756
 20
671.989320
 42
0.023813
  0
VERTEX
  8
0
 10
1296.551101
 20
665.573162
 42
0.026200
  0
VERTEX
  8
0
 10
1300.120912
 20
659.685612
 42
0.016108
  0
VERTEX
  8
0
 10
1305.534385
 20
652.255660
 42
0.007819
  0
VERTEX
  8
0
 10
1312.900679
 20
643.099993
 42
0.003372
  0
VERTEX
  8
0
 10
1320.463128
 20
634.119657
 42
0.125083
  0
VERTEX
  8
0
 10
1322.628772
 20
632.588959
 42
0.101452
  0
VERTEX
  8
0
 10
1323.431381
 20
632.455978
 42
0.046372
  0
VERTEX
  8
0
 10
1324.489214
 20
632.595024
 42
0.043327
  0
VERTEX
  8
0
 10
1325.616023
 20
632.955937
 42
0.045899
  0
VERTEX
  8
0
 10
1326.640905
 20
633.500367
 42
0.168848
  0
VERTEX
  8
0
 10
1328.618307
 20
636.068228
 42
0.175272
  0
VERTEX
  8
0
 10
1328.537297
 20
639.263828
 42
0.065993
  0
VERTEX
  8
0
 10
1325.873506
 20
644.092020
 42
0.009581
  0
VERTEX
  8
0
 10
1319.019664
 20
653.012710
 42
-0.017096
  0
VERTEX
  8
0
 10
1311.300919
 20
663.377863
 42
-0.030749
  0
VERTEX
  8
0
 10
1305.812460
 20
672.442856
 42
-0.031154
  0
VERTEX
  8
0
 10
1301.523317
 20
682.030591
 42
-0.018090
  0
VERTEX
  8
0
 10
1297.527691
 20
694.000000
 42
0.005332
  0
VERTEX
  8
0
 10
1296.014081
 20
698.951329
 42
0.006765
  0
VERTEX
  8
0
 10
1294.505943
 20
703.489063
 42
0.005429
  0
VERTEX
  8
0
 10
1293.152155
 20
707.253113
 42
0.054055
  0
VERTEX
  8
0
 10
1292.402829
 20
708.750000
 42
0.117745
  0
VERTEX
  8
0
 10
1290.828428
 20
710.259212
 42
0.111311
  0
VERTEX
  8
0
 10
1288.709127
 20
710.933742
 42
0.109190
  0
VERTEX
  8
0
 10
1286.472071
 20
710.638801
 42
0.109634
  0
SEQEND
  0
POLYLINE
  8
0
 66
1
 70
1
  0
VERTEX
  8
0
 10
774.813755
 20
654.481100
 42
-0.056495
  0
VERTEX
  8
0
 10
762.292168
 20
645.813997
 42
-0.032874
  0
VERTEX
  8
0
 10
745.636731
 20
638.238699
 42
-0.028560
  0
VERTEX
  8
0
 10
725.395740
 20
631.887944
 42
-0.019827
  0
VERTEX
  8
0
 10
701.931081
 20
626.953425
 42
-0.021918
  0
VERTEX
  8
0
 10
688.384104
 20
625.267723
 42
-0.011264
  0
VERTEX
  8
0
 10
671.306259
 20
624.285670
 42
-0.010712
  0
VERTEX
  8
0
 10
654.909258
 20
624.064446
 42
-0.038020
  0
VERTEX
  8
0
 10
644.438756
 20
624.945362
 42
0.006718
  0
VERTEX
  8
0
 10
639.965251
 20
625.605479
 42
0.046824
  0
VERTEX
  8
0
 10
637.759020
 20
625.692648
 42
0.094354
  0
VERTEX
  8
0
 10
636.285021
 20
625.328432
 42
0.076441
  0
VERTEX
  8
0
 10
634.922812
 20
624.430145
 42
0.101309
  0
VERTEX
  8
0
 10
633.513725
 20
622.510900
 42
0.118803
  0
VERTEX
  8
0
 10
633.077486
 20
620.300797
 42
0.123464
  0
VERTEX
  8
0
 10
633.698656
 20
618.198548
 42
0.115038
  0
VERTEX
  8
0
 10
635.250000
 20
616.573044
 42
0.106325
  0
VERTEX
  8
0
 10
639.573893
 20
614.906833
 42
0.016933
  0
VERTEX
  8
0
 10
648.633000
 20
613.795223
 42
0.017968
  0
VERTEX
  8
0
 10
659.632425
 20
613.219423
 42
0.014371
  0
VERTEX
  8
0
 10
671.500000
 20
613.366258
 42
0.024970
  0
VERTEX
  8
0
 10
698.857252
 20
615.863787
 42
0.025170
  0
VERTEX
  8
0
 10
725.755191
 20
621.073057
 42
0.026690
  0
VERTEX
  8
0
 10
749.970210
 20
628.431111
 42
0.045467
  0
VERTEX
  8
0
 10
769.100199
 20
637.419298
 42
0.023975
  0
VERTEX
  8
0
 10
776.064927
 20
641.962962
 42
0.027548
  0
VERTEX
  8
0
 10
782.232237
 20
646.961155
 42
0.025649
  0
VERTEX
  8
0
 10
786.883883
 20
651.631837
 42
0.185088
  0
VERTEX
  8
0
 10
788.000000
 20
654.543639
 42
0.134939
  0
VERTEX
  8
0
 10
787.515961
 20
656.304531
 42
0.066872
  0
VERTEX
  8
0
 10
786.065689
 20
658.134871
 42
0.066448
  0
VERTEX
  8
0
 10
784.167562
 20
659.531923
 42
0.126110
  0
VERTEX
  8
0
 10
782.341249
 20
660.000000
 42
0.150627
  0
VERTEX
  8
0
 10
781.599259
 20
659.771283
 42
0.008657
  0
VERTEX
  8
0
 10
779.629381
 20
658.378823
 42
0.012564
  0
VERTEX
  8
0
 10
777.320823
 20
656.595386
 42
0.008858
  0
SEQEND
  0
POLYLINE
  8
0
 66
1
 70
1
  0
VERTEX
  8
0
 10
847.222506
 20
650.443296
 42
0.060136
  0
VERTEX
  8
0
 10
846.372203
 20
649.680597
 42
0.048052
  0
VERTEX
  8
0
 10
845.652861
 20
648.680408
 42
0.049598
  0
VERTEX
  8
0
 10
845.162595
 20
647.606748
 42
0.082496
  0
VERTEX
  8
0
 10
845.000000
 20
646.627984
 42
0.153448
  0
VERTEX
  8
0
 10
846.311639
 20
642.454723
 42
0.004505
  0
VERTEX
  8
0
 10
857.127074
 20
627.242480
 42
0.009240
  0
VERTEX
  8
0
 10
869.775543
 20
610.449241
 42
0.008337
  0
VERTEX
  8
0
 10
883.467995
 20
593.540901
 42
0.010694
  0
VERTEX
  8
0
 10
903.499944
 20
570.643669
 42
0.007251
  0
VERTEX
  8
0
 10
927.240946
 20
545.395456
 42
0.002085
  0
VERTEX
  8
0
 10
951.195270
 20
520.855027
 42
0.200970
  0
VERTEX
  8
0
 10
955.624046
 20
519.000000
 42
0.102726
  0
VERTEX
  8
0
 10
957.598002
 20
519.409880
 42
0.089515
  0
VERTEX
  8
0
 10
959.356811
 20
520.582471
 42
0.090939
  0
VERTEX
  8
0
 10
960.573490
 20
522.276526
 42
0.110816
  0
VERTEX
  8
0
 10
961.000000
 20
524.177305
 42
0.178894
  0
VERTEX
  8
0
 10
960.450749
 20
525.663305
 42
0.004929
  0
VERTEX
  8
0
 10
955.846387
 20
530.934835
 42
0.008387
  0
VERTEX
  8
0
 10
949.679011
 20
537.627446
 42
0.003608
  0
VERTEX
  8
0
 10
941.239543
 20
546.355876
 42
-0.006915
  0
VERTEX
  8
0
 10
914.972206
 20
573.884595
 42
-0.010628
  0
VERTEX
  8
0
 10
893.084048
 20
598.497439
 42
-0.012122
  0
VERTEX
  8
0
 10
874.725512
 20
621.136140
 42
-0.016075
  0
VERTEX
  8
0
 10
859.208798
 20
642.643530
 42
0.010251
  0
VERTEX
  8
0
 10
854.742334
 20
648.988870
 42
0.090263
  0
VERTEX
  8
0
 10
852.258054
 20
651.335545
 42
0.207967
  0
VERTEX
  8
0
 10
850.013082
 20
651.713508
 42
0.092190
  0
SEQEND
  0
POLYLINE
  8
0
 66
1
 70
1
  0
VERTEX
  8
0
 10
810.571429
 20
648.428571
 42
0.146941
  0
VERTEX
  8
0
 10
809.459177
 20
646.361292
 42
0.053988
  0
VERTEX
  8
0
 10
809.144933
 20
643.025973
 42
0.016018
  0
VERTEX
  8
0
 10
809.439766
 20
636.616024
 42
0.000923
  0
VERTEX
  8
0
 10
811.009301
 20
617.000000
 42
0.006245
  0
VERTEX
  8
0
 10
813.227878
 20
593.512946
 42
0.014006
  0
VERTEX
  8
0
 10
815.632897
 20
575.763783
 42
0.018261
  0
VERTEX
  8
0
 10
818.429743
 20
561.910162
 42
0.032577
  0
VERTEX
  8
0
 10
821.873613
 20
550.810802
 42
0.075255
  0
VERTEX
  8
0
 10
823.270541
 20
548.349470
 42
0.123805
  0
VERTEX
  8
0
 10
825.154207
 20
546.893587
 42
0.140133
  0
VERTEX
  8
0
 10
827.327885
 20
546.602359
 42
0.109123
  0
VERTEX
  8
0
 10
829.567058
 20
547.451981
 42
0.109354
  0
VERTEX
  8
0
 10
831.219860
 20
549.146571
 42
0.131225
  0
VERTEX
  8
0
 10
831.863608
 20
551.271853
 42
0.069423
  0
VERTEX
  8
0
 10
831.526901
 20
554.452584
 42
0.013654
  0
VERTEX
  8
0
 10
829.983269
 20
560.000000
 42
-0.022484
  0
VERTEX
  8
0
 10
827.686422
 20
568.856788
 42
-0.013023
  0
VERTEX
  8
0
 10
825.687428
 20
579.673918
 42
-0.011291
  0
VERTEX
  8
0
 10
823.974359
 20
592.370578
 42
-0.007487
  0
VERTEX
  8
0
 10
822.556712
 20
607.006814
 42
0.001363
  0
VERTEX
  8
0
 10
820.703599
 20
628.934903
 42
0.009810
  0
VERTEX
  8
0
 10
819.574077
 20
639.485343
 42
0.016266
  0
VERTEX
  8
0
 10
818.581661
 20
645.682098
 42
0.136904
  0
VERTEX
  8
0
 10
817.328685
 20
648.189301
 42
0.084561
  0
VERTEX
  8
0
 10
815.731560
 20
649.445585
 42
0.116117
  0
VERTEX
  8
0
 10
813.975006
 20
649.925288
 42
0.117628
  0
VERTEX
  8
0
 10
812.205834
 20
649.568897
 42
0.088337
  0
SEQEND
  0
POLYLINE
  8
0
 66
1
 70
1
  0
VERTEX
  8
0
 10
767.000000
 20
615.873039
 42
-0.016243
  0
VERTEX
  8
0
 10
759.657847
 20
609.891644
 42
-0.004435
  0
VERTEX
  8
0
 10
747.687531
 20
600.936962
 42
-0.004477
  0
VERTEX
  8
0
 10
735.531025
 20
592.176521
 42
-0.015459
  0
VERTEX
  8
0
 10
727.434618
 20
586.818933
 42
-0.008093
  0
VERTEX
  8
0
 10
719.593841
 20
582.145844
 42
-0.012168
  0
VERTEX
  8
0
 10
712.596212
 20
578.350681
 42
-0.012862
  0
VERTEX
  8
0
 10
705.726068
 20
575.058305
 42
-0.010806
  0
VERTEX
  8
0
 10
698.287696
 20
571.917264
 42
0.005506
  0
VERTEX
  8
0
 10
695.213947
 20
570.657510
 42
0.007099
  0
VERTEX
  8
0
 10
692.420448
 20
569.429483
 42
0.005548
  0
VERTEX
  8
0
 10
690.113051
 20
568.344703
 42
0.060336
  0
VERTEX
  8
0
 10
689.250000
 20
567.790185
 42
0.146630
  0
VERTEX
  8
0
 10
688.265137
 20
566.312863
 42
0.102415
  0
VERTEX
  8
0
 10
688.078628
 20
564.306459
 42
0.091569
  0
VERTEX
  8
0
 10
688.718330
 20
562.194092
 42
0.089877
  0
VERTEX
  8
0
 10
690.073117
 20
560.433830
 42
0.056676
  0
VERTEX
  8
0
 10
691.508111
 20
559.404311
 42
0.140294
  0
VERTEX
  8
0
 10
692.756732
 20
559.111514
 42
0.065199
  0
VERTEX
  8
0
 10
694.516638
 20
559.429308
 42
0.005729
  0
VERTEX
  8
0
 10
698.823117
 20
560.857968
 42
0.023033
  0
VERTEX
  8
0
 10
707.833981
 20
564.434448
 42
0.014497
  0
VERTEX
  8
0
 10
718.020137
 20
569.391245
 42
0.013658
  0
VERTEX
  8
0
 10
728.697348
 20
575.352322
 42
0.012980
  0
VERTEX
  8
0
 10
739.219124
 20
581.985127
 42
0.009364
  0
VERTEX
  8
0
 10
751.151072
 20
590.274094
 42
0.007816
  0
VERTEX
  8
0
 10
763.515044
 20
599.508685
 42
0.004895
  0
VERTEX
  8
0
 10
774.537806
 20
608.186611
 42
0.078670
  0
VERTEX
  8
0
 10
777.712796
 20
611.684423
 42
0.030624
  0
VERTEX
  8
0
 10
778.507008
 20
613.075380
 42
0.121256
  0
VERTEX
  8
0
 10
778.716720
 20
614.030002
 42
0.113798
  0
VERTEX
  8
0
 10
778.465765
 20
615.005861
 42
0.025433
  0
VERTEX
  8
0
 10
777.591957
 20
616.500000
 42
0.122143
  0
VERTEX
  8
0
 10
775.606219
 20
618.341304
 42
0.141870
  0
VERTEX
  8
0
 10
773.101362
 20
618.908638
 42
0.109728
  0
VERTEX
  8
0
 10
770.175625
 20
618.074597
 42
0.055010
  0
SEQEND
  0
POLYLINE
  8
0
 66
1
 70
1
  0
VERTEX
  8
0
 10
837.830113
 20
612.526483
 42
0.071161
  0
VERTEX
  8
0
 10
837.376667
 20
610.981306
 42
0.079631
  0
VERTEX
  8
0
 10
837.400788
 20
609.431548
 42
0.049591
  0
VERTEX
  8
0
 10
837.958856
 20
607.442897
 42
0.011890
  0
VERTEX
  8
0
 10
839.284433
 20
604.276483
 42
-0.007371
  0
VERTEX
  8
0
 10
840.676837
 20
601.033042
 42
-0.001556
  0
VERTEX
  8
0
 10
843.005891
 20
595.328964
 42
-0.001629
  0
VERTEX
  8
0
 10
845.664842
 20
588.696503
 42
-0.001545
  0
VERTEX
  8
0
 10
848.328380
 20
581.928499
 42
0.008049
  0
VERTEX
  8
0
 10
855.087955
 20
565.387199
 42
0.024689
  0
VERTEX
  8
0
 10
860.389401
 20
554.507104
 42
0.033513
  0
VERTEX
  8
0
 10
865.731136
 20
546.169107
 42
0.029627
  0
VERTEX
  8
0
 10
872.347507
 20
538.250000
 42
0.028196
  0
VERTEX
  8
0
 10
875.982755
 20
534.800606
 42
0.100635
  0
VERTEX
  8
0
 10
878.779141
 20
533.264939
 42
0.166566
  0
VERTEX
  8
0
 10
881.143176
 20
533.332329
 42
0.119725
  0
VERTEX
  8
0
 10
883.345012
 20
534.828741
 42
0.106768
  0
VERTEX
  8
0
 10
884.605245
 20
537.015384
 42
0.166515
  0
VERTEX
  8
0
 10
884.562400
 20
539.168347
 42
0.082842
  0
VERTEX
  8
0
 10
883.016303
 20
541.898931
 42
0.013936
  0
VERTEX
  8
0
 10
879.094518
 20
546.476605
 42
-0.040436
  0
VERTEX
  8
0
 10
873.633011
 20
553.580550
 42
-0.024941
  0
VERTEX
  8
0
 10
868.349184
 20
562.708627
 42
-0.018351
  0
VERTEX
  8
0
 10
862.593218
 20
574.993740
 42
-0.007273
  0
VERTEX
  8
0
 10
855.558977
 20
592.257673
 42
0.003718
  0
VERTEX
  8
0
 10
852.493746
 20
599.936359
 42
0.005428
  0
VERTEX
  8
0
 10
849.670347
 20
606.649901
 42
0.002798
  0
VERTEX
  8
0
 10
847.190051
 20
612.286277
 42
0.091568
  0
VERTEX
  8
0
 10
846.349469
 20
613.507673
 42
0.121938
  0
VERTEX
  8
0
 10
844.247287
 20
614.775572
 42
0.104051
  0
VERTEX
  8
0
 10
841.664023
 20
615.015699
 42
0.109602
  0
VERTEX
  8
0
 10
839.309423
 20
614.201292
 42
0.149074
  0
SEQEND
  0
POLYLINE
  8
0
 66
1
 70
1
  0
VERTEX
  8
0
 10
785.683224
 20
598.202460
 42
0.062952
  0
VERTEX
  8
0
 10
784.777587
 20
596.906214
 42
0.004516
  0
VERTEX
  8
0
 10
782.767239
 20
592.997664
 42
0.006287
  0
VERTEX
  8
0
 10
780.463569
 20
588.270460
 42
0.004707
  0
VERTEX
  8
0
 10
778.040841
 20
583.008210
 42
-0.010309
  0
VERTEX
  8
0
 10
773.345637
 20
573.103702
 42
-0.020825
  0
VERTEX
  8
0
 10
769.169128
 20
565.547449
 42
-0.025907
  0
VERTEX
  8
0
 10
765.115198
 20
559.601140
 42
-0.035013
  0
VERTEX
  8
0
 10
760.825003
 20
554.711357
 42
0.065480
  0
VERTEX
  8
0
 10
757.773715
 20
550.774951
 42
0.166892
  0
VERTEX
  8
0
 10
757.073004
 20
547.280412
 42
0.238874
  0
VERTEX
  8
0
 10
758.702721
 20
544.907461
 42
0.125663
  0
VERTEX
  8
0
 10
762.256385
 20
544.000000
 42
0.197500
  0
VERTEX
  8
0
 10
767.442033
 20
546.131467
 42
0.042584
  0
VERTEX
  8
0
 10
773.867054
 20
553.671569
 42
0.033332
  0
VERTEX
  8
0
 10
781.072343
 20
565.319818
 42
0.015457
  0
VERTEX
  8
0
 10
788.916706
 20
581.296498
 42
0.002805
  0
VERTEX
  8
0
 10
792.825227
 20
590.051366
 42
0.033980
  0
VERTEX
  8
0
 10
794.074770
 20
593.513751
 42
0.098694
  0
VERTEX
  8
0
 10
794.249407
 20
595.647601
 42
0.116764
  0
VERTEX
  8
0
 10
793.561490
 20
597.546498
 42
0.104805
  0
VERTEX
  8
0
 10
791.887388
 20
599.208960
 42
0.123114
  0
VERTEX
  8
0
 10
789.775796
 20
599.927673
 42
0.123827
  0
VERTEX
  8
0
 10
787.583815
 20
599.566440
 42
0.106779
  0
SEQEND
  0
ENDSEC
  0
EOF
